Wednesday, July 26, 2017
Text Size

Guitar Tabs

FIFTH SECOND OF FOREVER

#----------------------------------PLEASE NOTE---------------------------------#
#This file is the author's own work and represents their interpretation of the #
#song. You may only use this file for private study, scholarship, or research. #
#------------------------------------------------------------------------------#
FIFTH SECOND OF FOREVER
As recorded by Hawkwind
(From the 1980 Album LEVITATION)

Transcribed by Andy Mackie (UncleDes)

Words and Music by Hawkwind
Arranged by Andy Mackie (UncleDes)


Gtr I (E A D G B E) - 'Acoustic'
Gtr II (E A D G B E) - 'Lloyd'
Gtr III (E A D G B E) - 'Dave'

Acoustic Intro
Q=92
4/4
Gtr I
a H Q Q Q. E H a H Q Q
|--------------------|-----------------|--------------------|
|--------------------|-----------------|--------------------|
|-12-10-----12--14---|-13----14--16----|-12-10-----12--14---|
|--0-(0)-----0--(0)--|-----------------|--0-(0)-----0--(0)--|
|--------------------|-----------------|--------------------|
|--------------------|--0----(0)--0----|--------------------|


Q. +E H a H Q Q Q. E H
|-----------------------|--------------------|-----------------|
|-----------------------|--------------------|-----------------|
|-----------------------|-12-10-----12--14---|-13----14--16----|
|-14----(14)b15r(14)----|--0-(0)-----0--(0)--|-----------------|
|-----------------------|--------------------|-----------------|
|--0-----(0)------0-----|--------------------|--0----(0)--0----|


|---3---|
E E Q Q Q Q. S S S Q Q E E Q Q Q
|-------------------12---|----------------------------|-------------------12---|
|-13-12------------------|-12----12--13--12-----------|-13-12------------------|
|--------14---(14)-------|-------------------14--13---|--------14---(14)-------|
|------------------------|----------------------------|------------------------|
|--0-(0)-(0)----0---(0)--|----------------------------|--0-(0)-(0)----0---(0)--|
|------------------------|--0----(0)-(0)-(0)--0--(0)--|------------------------|


|---3---|
Q. +E H E E Q Q Q Q. S S S Q Q
|-----------------------|-------------------12---|------------------------------|
|-12----(12)b13r(12)----|-13-12------------------|-12----12--13--12-------------|
|-----------------------|--------14---(14)-------|-------------------14--13-----|
|-----------------------|------------------------|------------------------------|
|-----------------------|--0-(0)-(0)----0---(0)--|------------------------------|
|--0-----(0)------0-----|------------------------|--0----(0)-(0)-(0)--0--(0)----|


E E Q Q Q E E E E E E E E
|-------------------12---|-16-12--13------12--------------|
|-13-12------------------|------------15------13--15--12--|
|--------14---(14)-------|--------------------------------|
|------------------------|--------------------------------|
|--0-(0)-(0)----0---(0)--|--------------------------------|
|------------------------|--0-(0)-(0)-(0)-(0)-(0)-(0)-(0)-|


H Q Q Q. E H
|----------------|-----------------|
|----------------|-----------------|
|-10----12--14---|-13----14--16----|
|--0-----0--(0)--|-----------------|
|----------------|-----------------|
|----------------|--0----(0)--0----|


4/4
H Q Q Q. +E H H Q Q Q. E H
|----------------|-----------------------|----------------|-----------------|
|----------------|-----------------------|----------------|-----------------|
|-10----12--14---|-----------------------|-10----12--14---|-13----14--16----|
|--0-----0--(0)--|-14----(14)b15r(14)----|--0-----0--(0)--|-----------------|
|----------------|-----------------------|----------------|-----------------|
|----------------|--0-----(0)------0-----|----------------|--0----(0)--0----|


|---3---|
E E Q Q Q Q. S S S Q Q
|-------------------12---|----------------------------|
|-13-12------------------|-12----12--13--12-----------|
|--------14---(14)-------|-------------------14--13---|
|------------------------|----------------------------|
|--0-(0)-(0)----0---(0)--|----------------------------|
|------------------------|--0----(0)-(0)-(0)--0--(0)--|


E E Q Q Q E E E E E E E E W
|-------------------12---|-16-12--13------12-----------------|-----------*|
|-13-12------------------|------------15------13--15--12tr13-|-12tr13----*|
|--------14---(14)-------|-----------------------------------|-----------*|
|------------------------|-----------------------------------|-----------*|
|--0-(0)-(0)----0---(0)--|-----------------------------------|-----------*|
|------------------------|--0-(0)-(0)-(0)-(0)-(0)-(0)-(0)----|-----------*|

 

Duration Legend
---------------
W - whole; H - half; Q - quarter; E - 8th; S - 16th; T - 32nd; X - 64th; a - acciaccatura
+ - note tied to previous; . - note dotted; .. - note double dotted
Uncapitalized letters represent notes that are staccato (1/2 duration)
Irregular groupings are notated above the duration line
Duration letters will always appear directly above the note/fret number it represents the
duration for. Duration letters with no fret number below them represent rests. Multi-
bar rests are notated in the form Wxn, where n is the number of bars to rest for. Low
melody durations appear below the staff

Tablature Legend
----------------
h - hammer-on
p - pull-off
b - bend
pb - pre-bend
r - bend release (if no number after the r, then release immediately)
/\ - slide into or out of (from/to "nowhere")
s - legato slide
S - shift slide
<n> - natural harmonic
[n] - artificial harmonic
n(n) - tapped harmonic
~ - vibrato
tr - trill
T - tap
TP - trem. picking
PM - palm muting
\n/ - tremolo bar dip; n = amount to dip
\n - tremolo bar down
n/ - tremolo bar up
/n\ - tremolo bar inverted dip
= - hold bend; also acts as connecting device for hammers/pulls
<> - volume swell (louder/softer)
x - on rhythm slash represents muted slash
o - on rhythm slash represents single note slash

Misc Legend
-----------
| - bar
|| - double bar
||o - repeat start
o|| - repeat end
*| - double bar (ending)
: - bar (freetime)
$ - Segno
& - Coda
Tempo markers - <E/E./Q/Q./H/H.> = BPM(8/16=s8/s16), where s8 = swing 8ths, s16 = swing 16ths

** Generated using Power Tab Editor by Brad Larsen: The Official Power Tab Web Site

Presets
BG Color
BG Patterns
Accent Color
Apply