Wednesday, July 26, 2017
Text Size

Guitar Tabs

ARIOCH

#----------------------------------PLEASE NOTE---------------------------------#
#This file is the author's own work and represents their interpretation of the #
#song. You may only use this file for private study, scholarship, or research. #
#------------------------------------------------------------------------------#
ARIOCH (INSTRUMENTAL)
As recorded by Hawkwind
(From the 1985 Album THE CHRONICLE OF THE BLACK SWORD)

Transcribed by Andy Mackie

Words by Marcel Marceau Music by Langton/ Davey/ Bainbridge/ Thompson/ Brock


Gtr I (E A D G B E) - 'Untitled'
Gtr II (E A D G B E) - 'Untitled'

Theme A (I)
Q=220
4/4
Gtr I
E E E E E E E E E E E Q E Q E E E E E E E E +E E E E E E E E 4x
||------------------|---------------|-----------------|--------------------||
||o-----------------|---------------|-----------------|-------------------o||
||------------------|---------------|-----------------|-------6-7-6--------||
||--8-8-6-8---6---8-|---9---8--6----|-8-8-6-8---6---8-|-(8)-9-------9-8-6--||
||o-----------------|------------7--|-----------------|-------------------o||
||------------------|---------------|-----------------|--------------------||
|
| Gtr II
| W W W W 4x
||------------------|---------------|-----------------|--------------------||
||o-----------------|---------------|-----------------|-------------------o||
||------------------|---------------|-----------------|--------------------||
||------------------|---------------|-----------------|--------------------||
||o-----------------|---------------|-----------------|-------------------o||
||------------------|---------------|-----------------|--------------------||


Theme B (I)
H H H H Q. E E E E E +W
|-----------|-----------|----------------|------------|
|-----------|-----------|----------------|------------|
|-----------|-----------|----------------|------------|
|------5----|-4---------|------5---4-----|------------|
|-3---------|------5----|-3----------5-3-|-(3)--------|
|-----------|-----------|----------------|------------|
|
| H H H H Q. E E E E E +W
|-----------|-----------|----------------|------------|
|------8----|-7---------|------8---7-----|------------|
|-5---------|------7----|-5----------7-5-|-(5)--------|
|-----------|-----------|----------------|------------|
|-----------|-----------|----------------|------------|
|-----------|-----------|----------------|------------|


H H H H Q. E E E Q +W
|-----------|-----------|---------------|--------|
|-----------|-----------|---------------|--------|
|-----------|-----------|---------------|--------|
|------5----|-4---------|------5---4----|--------|
|-3---------|------5----|-3----------5--|-(5)----|
|-----------|-----------|---------------|--------|
|
| H H H H Q. E E E Q +W
|-----------|-----------|---------------|--------|
|------8----|-7---------|------8---7----|--------|
|-5---------|------7----|-5----------7--|-(7)----|
|-----------|-----------|---------------|--------|
|-----------|-----------|---------------|--------|
|-----------|-----------|---------------|--------|


H H H H Q. E E E E E +W
|-----------|-----------|----------------|------------|
|-----------|-----------|----------------|------------|
|-----------|-----------|----------------|------------|
|------5----|-4---------|------5---4-----|------------|
|-3---------|------5----|-3----------5-3-|-(3)--------|
|-----------|-----------|----------------|------------|
|
| H H H H Q. E E E E E +W
|-----------|-----------|----------------|------------|
|------8----|-7---------|------8---7-----|------------|
|-5---------|------7----|-5----------7-5-|-(5)--------|
|-----------|-----------|----------------|------------|
|-----------|-----------|----------------|------------|
|-----------|-----------|----------------|------------|


H H H H Q. E E E E E E E E E Q Q
|------------|-------------|-----------------|----------------*|
|------------|-------------|-----------------|----------------*|
|------------|-------------|-----------------|----------------*|
|-------9----|--8----------|-------7---6-----|---------6---7--*|
|-7----------|--------9----|-5-------------7-|---5---7--------*|
|-7----------|-------------|-----------------|----------------*|
|
| H H H H Q. E E E E E E E E E Q Q
|------------|-------------|-----------------|----------------*|
|------12----|-11----------|------10---9-----|---------9--10--*|
|-9----------|-------11----|-7-------------9-|---7---9--------*|
|------------|-------------|-----------------|----------------*|
|------------|-------------|-----------------|----------------*|
|------------|-------------|-----------------|----------------*|

 

Duration Legend
---------------
W - whole; H - half; Q - quarter; E - 8th; S - 16th; T - 32nd; X - 64th; a - acciaccatura
+ - note tied to previous; . - note dotted; .. - note double dotted
Uncapitalized letters represent notes that are staccato (1/2 duration)
Irregular groupings are notated above the duration line
Duration letters will always appear directly above the note/fret number it represents the
duration for. Duration letters with no fret number below them represent rests. Multi-
bar rests are notated in the form Wxn, where n is the number of bars to rest for. Low
melody durations appear below the staff

Tablature Legend
----------------
h - hammer-on
p - pull-off
b - bend
pb - pre-bend
r - bend release (if no number after the r, then release immediately)
/\ - slide into or out of (from/to "nowhere")
s - legato slide
S - shift slide
<n> - natural harmonic
[n] - artificial harmonic
n(n) - tapped harmonic
~ - vibrato
tr - trill
T - tap
TP - trem. picking
PM - palm muting
\n/ - tremolo bar dip; n = amount to dip
\n - tremolo bar down
n/ - tremolo bar up
/n\ - tremolo bar inverted dip
= - hold bend; also acts as connecting device for hammers/pulls
<> - volume swell (louder/softer)
x - on rhythm slash represents muted slash
o - on rhythm slash represents single note slash

Misc Legend
-----------
| - bar
|| - double bar
||o - repeat start
o|| - repeat end
*| - double bar (ending)
: - bar (freetime)
$ - Segno
& - Coda
Tempo markers - <E/E./Q/Q./H/H.> = BPM(8/16=s8/s16), where s8 = swing 8ths, s16 = swing 16ths

** Generated using Power Tab Editor by Brad Larsen: The Official Power Tab Web Site

Presets
BG Color
BG Patterns
Accent Color
Apply