Wednesday, April 26, 2017
Text Size

MOTORWAY CITY (G)

#----------------------------------PLEASE NOTE---------------------------------#
#This file is the author's own work and represents their interpretation of the #
#song. You may only use this file for private study, scholarship, or research. #
#------------------------------------------------------------------------------#
MOTORWAY CITY
As recorded by Hawkwind
(From the 1980 Album LEVITATION)

Transcribed by UncleDes

Words and Music by David Brock


Gtr I (E A D G B E) - 'Dave B'
Gtr II (E A D G B E) - 'Huw 1 Rhythm'
Gtr III (E A D G B E) - 'Huw 2 Lead'
Gtr IV (E A D G B E) - 'Huw 3 Ebow'

Intro
Q=134
D C/D
4/4
Gtr I
Q E E E E E E E E E E Q E E E E E E E E E E E E E E Q E E
|-5--x-x-5-5---5-|---5---5-5--x-x-|--3-3-x-3-3-3---3-|-----3---3-3--x-x--|
|-7--x-x-7-7---7-|---7---7-7--x-x-|--5-5-x-5-5-5---5-|-----5---5-5--x-x--|
|-7--x-x-7-7---7-|---7---7-7--x-x-|--5-5-x-5-5-5---5-|-----5---5-5--x-x--|
|-0--0-0-0-0---0-|---0---0-0--0-0-|--0-0-0-0-0-0---0-|-----0---0-0--0-0--|
|----------------|----------------|------------------|-------------------|
|----------------|----------------|------------------|-------------------|
|
| Gtr II
| W W W +W
|----------------|----------------|-^3---------------|-(3)---------------|
|----------------|----------------|-^5---------------|-(5)---------------|
|----------------|----------------|-^5---------------|-(5)---------------|
|----------------|----------------|-^0---------------|-(0)---------------|
|----------------|----------------|------------------|-------------------|
|----------------|----------------|------------------|-------------------|


D C/D
4/4
E E E E E E E E E E E E Q E E E E E E E E E E E E E E Q E E
|--5-5-x-5-5-5---5-|-----5---5-5--x-x-|--3-3-x-3-3-3---3-|-----3---3-3--x-x--|
|--7-7-x-7-7-7---7-|-----7---7-7--x-x-|--5-5-x-5-5-5---5-|-----5---5-5--x-x--|
|--7-7-x-7-7-7---7-|-----7---7-7--x-x-|--5-5-x-5-5-5---5-|-----5---5-5--x-x--|
|--0-0-0-0-0-0---0-|-----0---0-0--0-0-|--0-0-0-0-0-0---0-|-----0---0-0--0-0--|
|------------------|------------------|------------------|-------------------|
|------------------|------------------|------------------|-------------------|
|
| W +W W +W
|-^5---------------|-(5)--------------|-^3---------------|-(3)---------------|
|-^7---------------|-(7)--------------|-^5---------------|-(5)---------------|
|-^7---------------|-(7)--------------|-^5---------------|-(5)---------------|
|-^0---------------|-(0)--------------|-^0---------------|-(0)---------------|
|------------------|------------------|------------------|-------------------|
|------------------|------------------|------------------|-------------------|


Lead Guitar Intro
Q E E E E E E
|--5-----------------x--------x--------5--------5-----------------5-------|
|--7-----------------x--------x--------7--------7-----------------7-------|
|--7-----------------x--------x--------7--------7-----------------7-------|
|--0-----------------0--------0--------0--------0-----------------0-------|
|-------------------------------------------------------------------------|
|-------------------------------------------------------------------------|
|
| Gtr III
| |--3--| |--3--| |--3--| |--3--| |--3--| |--3--| |--3--| |--3--|
| S S S S S S S S S S S S S S S S S S S S S S S S
|-10-12-10-12-10-12-10-12-10-12-10-12-10-12-10-12-10-12-10-12-10-12-10-12-|
|-------------------------------------------------------------------------|
|-------------------------------------------------------------------------|
|-------------------------------------------------------------------------|
|-------------------------------------------------------------------------|
|-------------------------------------------------------------------------|


E E E E Q E E Q E E E E E E E E E E Q E E
|-----------5-----------------5--------5-----------------x--------x-------|--3----x--x-3-3---3-|-------3---------3----3---x-x----|
|-----------7-----------------7--------7-----------------x--------x-------|--5----x--x-5-5---5-|-------5---------5----5---x-x----|
|-----------7-----------------7--------7-----------------x--------x-------|--5----x--x-5-5---5-|-------5---------5----5---x-x----|
|-----------0-----------------0--------0-----------------0--------0-------|--0----0--0-0-0---0-|-------0---------0----0---0-0----|
|-------------------------------------------------------------------------|--------------------|---------------------------------|
|-------------------------------------------------------------------------|--------------------|---------------------------------|
|
| |--3--| |--3--| |--3--| |--3--| |--3--| |--3--| |--3--| |--3--|
| S S S S S S S S S S S S S S S S S S S S S S S S Q H. +E Q +E Q Q
|-10-12-10-12-10-12-10-12-10-12-10-12-10-12-10-12-10-12-10-12-10-12-10-12-|-10--/14------------|-(14)-14pb15r==(14)r-12----------|
|-------------------------------------------------------------------------|--------------------|-------------------------15------|
|-------------------------------------------------------------------------|--------------------|---------------------------------|
|-------------------------------------------------------------------------|--------------------|---------------------------------|
|-------------------------------------------------------------------------|--------------------|---------------------------------|
|-------------------------------------------------------------------------|--------------------|---------------------------------|


C
Q E E E E E E E E E E Q E E
|---5----x--x-5--5----5-|-----5----5-5------x-x-|
|---7----x--x-7--7----7-|-----7----7-7------x-x-|
|---7----x--x-7--7----7-|-----7----7-7------x-x-|
|---0----0--0-0--0----0-|-----0----0-0------0-0-|
|-----------------------|-----------------------|
|-----------------------|-----------------------|
|
| +Q Q. Q. Q. Q +Q.
|-------12--------------|-----------------------|
|-(15)----------13------|-15--------------------|
|-----------------------|---------14---(14)-----|
|-----------------------|-----------------------|
|-----------------------|-----------------------|
|-----------------------|-----------------------|


C/D
Q E E E E E E E E E E Q E E
|---3---x--x-3-3----3-|------3-------3-3------x-x-|
|---5---x--x-5-5----5-|------5-------5-5------x-x-|
|---5---x--x-5-5----5-|------5-------5-5------x-x-|
|---0---0--0-0-0----0-|------0-------0-0------0-0-|
|---------------------|---------------------------|
|---------------------|---------------------------|
|
| +Q. H E +Q Q. +Q.
|---------------------|---------------------------|
|------------------13-|-(13)----------------------|
|-(14)----12----------|--------12b14r====(12)-----|
|---------------------|---------------------------|
|---------------------|---------------------------|
|---------------------|---------------------------|


Verse
C C/D
E E E E E E E E E E E E E E E E E E E E E E E E E E E E H
|--5---5---5---5---|-----5---5--5----5---|--3---3---3---3---|---3-------3-3----|
|--7---7---7---7---|-----7---7--7----7---|--5---5---5---5---|---5-------5-5----|
|--7---7---7---7---|-----7---7--7----7---|--5---5---5---5---|---5-------5-5----|
|--0---0---0---0---|-----0---0--0----0---|--0---0---0---0---|---0-------0-0----|
|------------------|---------------------|------------------|------------------|
|------------------|---------------------|------------------|------------------|
|
| |-3-|
| W +H Q Q W E S S S E E H
|------------------|-----------10\-------|------------------|------------------|
|------------------|-----------10\-------|-^5---------------|-8-6-8-6-5--------|
|-^7---------------|-(7)-----------------|-^5---------------|-----------7-5----|
|-^7---------------|-(7)-----------------|-^5---------------|------------------|
|------------------|---------------------|------------------|------------------|
|------------------|---------------------|------------------|------------------|


E E E E E E E E E E E E E E E E
|--5---5---5---5---|-----5---5--5-----5----|
|--7---7---7---7---|-----7---7--7-----7----|
|--7---7---7---7---|-----7---7--7-----7----|
|--0---0---0---0---|-----0---0--0-----0----|
|------------------|-----------------------|
|------------------|-----------------------|
|
| W +H Q Q
|------------------|-----------10---(10)---|
|------------------|-----------------10----|
|-^7---------------|-(7)-------------------|
|-^7---------------|-(7)-------------------|
|------------------|-----------------------|
|------------------|-----------------------|


E E E E E E E E E E E E H
|--3---3---3---3---|---3-------3-3---------------|
|--5---5---5---5---|---5-------5-5---------------|
|--5---5---5---5---|---5-------5-5---------------|
|--0---0---0---0---|---0-------0-0---------------|
|------------------|-----------------------------|
|------------------|-----------------------------|
|
| |-3-| |-3-| |-3-|
| W E S S S E E S S S E S S S E
|------------------|-----------------------------|
|-^5---------------|-8-6-8-6-5-------------------|
|-^5---------------|-----------7-5-7-5-----------|
|-^5---------------|-------------------7-5-7-5---|
|------------------|---------------------------7-|
|------------------|-----------------------------|


C C/D
E E E E E E E E E E E E E E E E E E E E E E E E E E E E H
|--5---5---5---5---|-----5----5---5----5---|--3---3---3---3---|---3---3-3----|
|--7---7---7---7---|-----7----7---7----7---|--5---5---5---5---|---5---5-5----|
|--7---7---7---7---|-----7----7---7----7---|--5---5---5---5---|---5---5-5----|
|--0---0---0---0---|-----0----0---0----0---|--0---0---0---0---|---0---0-0----|
|------------------|-----------------------|------------------|--------------|
|------------------|-----------------------|------------------|--------------|
|
| W +Q Q H W E E E E H
|------------------|-------10---(10)-------|------------------|--------------|
|------------------|-------------10--------|-^5---------------|-8-6-5--------|
|-^7---------------|-(7)-------------------|-^5---------------|-------7-5----|
|-^7---------------|-(7)-------------------|-^5---------------|--------------|
|------------------|-----------------------|------------------|--------------|
|------------------|-----------------------|------------------|--------------|


C C/D
E E E E E E E E E E E E E E E E
|--5---5---5---5---|-----5---5-5-------5--------|
|--7---7---7---7---|-----7---7-7-------7--------|
|--7---7---7---7---|-----7---7-7-------7--------|
|--0---0---0---0---|-----0---0-0-------0--------|
|------------------|----------------------------|
|------------------|----------------------------|
|
| |-3-| |-3-|
| W +E Q E S S S E S S S E
|------------------|----------------------------|
|------------------|---------5-7-8-7-5-5-7-5----|
|-^7---------------|-(7)-7-------------------7s=|
|-^7---------------|-(7)------------------------|
|------------------|----------------------------|
|------------------|----------------------------|


E E E E E E E E E E E E H
|-3---3----3----3---|---3-------3-3--------|
|-5---5----5----5---|---5-------5-5--------|
|-5---5----5----5---|---5-------5-5--------|
|-0---0----0----0---|---0-------0-0--------|
|-------------------|----------------------|
|-------------------|----------------------|
|
| |-3-|
| H H E S S S E E Q Q
|-------------------|----------------------|
|----------8--------|-8-6-8-6-5------------|
|-5-------(5)-------|-----------7-5/-------|
|-------------------|----------------------|
|-------------------|----------------------|
|-------------------|----------------------|


Prechorus 1
E E E Q E Q E E E Q E Q
|----------------0---(0)-(0)--|---------------0---(0)-(0)--|
|----------------0---(0)-(0)--|---------------0---(0)-(0)--|
|------------2--(2)---2--(2)--|-----------2--(2)---2--(2)--|
|--------2--(2)-(2)-------2---|-------2--(2)-(2)-------2---|
|--0----(0)-(0)---------------|---0--(0)-(0)---------------|
|-----------------------------|----------------------------|
|
| Q. Q. Q +W
|-17b19---------17r-----------|----------------------------|
|------------------------17---|-(17)-----------------------|
|-----------------------------|----------------------------|
|-----------------------------|----------------------------|
|-----------------------------|----------------------------|
|-----------------------------|----------------------------|


E E E Q E Q E E E Q E Q
|----------------0---(0)--(0)--|---------------0---(0)-(0)--|
|----------------0---(0)--(0)--|---------------0---(0)-(0)--|
|----------------2----2---(2)--|---------------2----2--(2)--|
|------------3--(3)--------3---|-----------3--(3)-------3---|
|--------3--(3)-(3)------------|-------3--(3)-(3)-----------|
|--1----(1)-(1)----------------|---1--(1)-(1)---------------|
|
| Q. Q. +Q +W
|-17b19---------17r------(17)--|-(17)-----------------------|
|------------------------------|----------------------------|
|------------------------------|----------------------------|
|------------------------------|----------------------------|
|------------------------------|----------------------------|
|------------------------------|----------------------------|


E E E Q E Q E E E Q E Q
|----------------0---(0)-(0)--|---------------0---(0)-(0)--|
|----------------0---(0)-(0)--|---------------0---(0)-(0)--|
|------------2--(2)---2--(2)--|-----------2--(2)---2--(2)--|
|--------2--(2)-(2)-------2---|-------2--(2)-(2)-------2---|
|--0----(0)-(0)---------------|---0--(0)-(0)---------------|
|-----------------------------|----------------------------|
|
| Q. Q. Q +W
|-17b19---------17r-----------|----------------------------|
|------------------------17---|-(17)-----------------------|
|-----------------------------|----------------------------|
|-----------------------------|----------------------------|
|-----------------------------|----------------------------|
|-----------------------------|----------------------------|


E E E Q E Q E E E Q E Q
|----------------0---(0)--(0)--|---------------0---(0)-(0)--|
|----------------0---(0)--(0)--|---------------0---(0)-(0)--|
|----------------2----2---(2)--|---------------2----2--(2)--|
|------------3--(3)--------3---|-----------3--(3)-------3---|
|--------3--(3)-(3)------------|-------3--(3)-(3)-----------|
|--1----(1)-(1)----------------|---1--(1)-(1)---------------|
|
| Q. Q. +Q +W
|-17b19---------17r------(17)--|-(17)-----------------------|
|------------------------------|----------------------------|
|------------------------------|----------------------------|
|------------------------------|----------------------------|
|------------------------------|----------------------------|
|------------------------------|----------------------------|


E E E Q E Q E E E Q E Q
|----------------0---(0)-(0)--|---------------0---(0)-(0)--|
|----------------0---(0)-(0)--|---------------0---(0)-(0)--|
|------------2--(2)---2--(2)--|-----------2--(2)---2--(2)--|
|--------2--(2)-(2)-------2---|-------2--(2)-(2)-------2---|
|--0----(0)-(0)---------------|---0--(0)-(0)---------------|
|-----------------------------|----------------------------|
|
| Q. Q. Q +W
|-17b19---------17r-----------|----------------------------|
|------------------------17---|-(17)-----------------------|
|-----------------------------|----------------------------|
|-----------------------------|----------------------------|
|-----------------------------|----------------------------|
|-----------------------------|----------------------------|


E E E Q E Q E E E Q E Q
|----------------0---(0)--(0)--|---------------0---(0)-(0)--|
|----------------0---(0)--(0)--|---------------0---(0)-(0)--|
|----------------2----2---(2)--|---------------2----2--(2)--|
|------------3--(3)--------3---|-----------3--(3)-------3---|
|--------3--(3)-(3)------------|-------3--(3)-(3)-----------|
|--1----(1)-(1)----------------|---1--(1)-(1)---------------|
|
| Q. Q. +Q +W
|-17b19---------17r------(17)--|-(17)-----------------------|
|------------------------------|----------------------------|
|------------------------------|----------------------------|
|------------------------------|----------------------------|
|------------------------------|----------------------------|
|------------------------------|----------------------------|


E E E Q E Q E E E Q E Q
|----------------0---(0)-(0)--|---------------0---(0)-(0)--|
|----------------0---(0)-(0)--|---------------0---(0)-(0)--|
|------------2--(2)---2--(2)--|-----------2--(2)---2--(2)--|
|--------2--(2)-(2)-------2---|-------2--(2)-(2)-------2---|
|--0----(0)-(0)---------------|---0--(0)-(0)---------------|
|-----------------------------|----------------------------|
|
| Q. Q. Q +W
|-17b19---------17r-----------|----------------------------|
|------------------------17---|-(17)-----------------------|
|-----------------------------|----------------------------|
|-----------------------------|----------------------------|
|-----------------------------|----------------------------|
|-----------------------------|----------------------------|


E E E Q E Q E E E Q E Q
|-----------------0-----(0)-(0)--|---------------0---(0)-(0)--|
|-----------------0-----(0)-(0)--|---------------0---(0)-(0)--|
|-----------------2------2--(2)--|---------------2----2--(2)--|
|-------------3--(3)---------3---|-----------3--(3)-------3---|
|---------3--(3)-(3)-------------|-------3--(3)-(3)-----------|
|--1-----(1)-(1)-----------------|---1--(1)-(1)---------------|
|
| Q. Q. Q +W
|-17b19==========17b20r=====17r--|-(17)-----------------------|
|--------------------------------|----------------------------|
|--------------------------------|----------------------------|
|--------------------------------|----------------------------|
|--------------------------------|----------------------------|
|--------------------------------|----------------------------|


Chorus 1
A G
E E E E Q E E E E E E Q E E E E E E Q E E E E E E Q E E
|-5---5---5--5---|-----5---5-5--5---|-3---3---3--3---|-----3---3-3--3---|
|-5---5---5--5---|-----5---5-5--5---|-3---3---3--3---|-----3---3-3--3---|
|-6---6---6--6---|-----6---6-6--6---|-4---4---4--4---|-----4---4-4--4---|
|-7---7---7--7---|-----7---7-7--7---|-5---5---5--5---|-----5---5-5--5---|
|----------------|------------------|----------------|------------------|
|----------------|------------------|----------------|------------------|
|
| W +W W +W
|----------------|------------------|-3--------------|-(3)--------------|
|-2--------------|-(2)--------------|-3--------------|-(3)--------------|
|-2--------------|-(2)--------------|-4--------------|-(4)--------------|
|-2--------------|-(2)--------------|-5--------------|-(5)--------------|
|-0--------------|-(0)--------------|----------------|------------------|
|----------------|------------------|----------------|------------------|


F#m7
E E E E Q E E E E E E Q E E
|-2---2---2--2---|---2-------2---2-----2-----|
|-2---2---2--2---|---2-------2---2-----2-----|
|-2---2---2--2---|---2-------2---2-----2-----|
|-2---2---2--2---|---2-------2---2-----2-----|
|----------------|---------------------------|
|----------------|---------------------------|
|
| W E S S S S S S S S E E S S
|----------------|-2-------------------------|
|----------------|---5-2-----2---2-----------|
|-2--------------|-------4-2---4---4-2-------|
|-2--------------|---------------------4-2-4-|
|-4--------------|---------------------------|
|-2--------------|---------------------------|


G
E E E E Q E E E E E E Q E E
|-3----3-----3--3-----|-----3---3-3--3----|
|-3----3-----3--3-----|-----3---3-3--3----|
|-4----4-----4--4-----|-----4---4-4--4----|
|-5----5-----5--5-----|-----5---5-5--5----|
|---------------------|-------------------|
|---------------------|-------------------|
|
| Q. H +E +W
|---------3-------(3)-|-(3)---------------|
|---------3-------(3)-|-(3)---------------|
|---------4-------(4)-|-(4)---------------|
|-5------(5)------(5)-|-(5)---------------|
|---------------------|-------------------|
|---------------------|-------------------|


A
E E E E Q E E E E E E Q E E
|-5---5---5--5---|-----5-------5-5-------5---|
|-5---5---5--5---|-----5-------5-5-------5---|
|-6---6---6--6---|-----6-------6-6-------6---|
|-7---7---7--7---|-----7-------7-7-------7---|
|----------------|---------------------------|
|----------------|---------------------------|
|
| W +E S S S S E S S S S Q
|----------------|---------------------------|
|-2--------------|-(2)-2-3-2-0---2-3-2-0-----|
|-2--------------|-(2)---------2---------2---|
|-2--------------|-(2)-----------------------|
|-0--------------|-(0)-----------------------|
|----------------|---------------------------|


G
E E E E Q E E E E E E Q E E
|-3----3-----3--3-----|-----3---3-3--3---|
|-3----3-----3--3-----|-----3---3-3--3---|
|-4----4-----4--4-----|-----4---4-4--4---|
|-5----5-----5--5-----|-----5---5-5--5---|
|---------------------|------------------|
|---------------------|------------------|
|
| Q. H +E +W
|---------3-------(3)-|-(3)--------------|
|---------3-------(3)-|-(3)--------------|
|---------4-------(4)-|-(4)--------------|
|-5------(5)------(5)-|-(5)--------------|
|---------------------|------------------|
|---------------------|------------------|


F#m7
E E E E Q E E E E E E Q E E
|-2---2---2--2---|-----2------2-2----2-----|
|-2---2---2--2---|-----2------2-2----2-----|
|-2---2---2--2---|-----2------2-2----2-----|
|-2---2---2--2---|-----2------2-2----2-----|
|----------------|-------------------------|
|----------------|-------------------------|
|
| W Q S E. S E. E S S
|----------------|-------------------------|
|----------------|-------5-2---------------|
|-2--------------|-4b6----------4-2--------|
|-2--------------|-------------------4-2-4-|
|-4--------------|-------------------------|
|-2--------------|-------------------------|


G
E E E E Q E E E E E E Q E E
|-3----3-----3--3-----|-----3---3-3--3---|
|-3----3-----3--3-----|-----3---3-3--3---|
|-4----4-----4--4-----|-----4---4-4--4---|
|-5----5-----5--5-----|-----5---5-5--5---|
|---------------------|------------------|
|---------------------|------------------|
|
| Q. H +E +W
|---------3-------(3)-|-(3)--------------|
|---------3-------(3)-|-(3)--------------|
|---------4-------(4)-|-(4)--------------|
|-5------(5)------(5)-|-(5)--------------|
|---------------------|------------------|
|---------------------|------------------|


A
E E E E Q E E E E E E Q E E
|-5---5---5--5---|-----5---5--5---5---|
|-5---5---5--5---|-----5---5--5---5---|
|-6---6---6--6---|-----6---6--6---6---|
|-7---7---7--7---|-----7---7--7---7---|
|----------------|--------------------|
|----------------|--------------------|
|
| W +H E E E E
|----------------|--------------------|
|-2--------------|-(2)----------------|
|-2--------------|-(2)----------------|
|-2--------------|-(2)----------2-4-2-|
|-0--------------|-(0)-------/4-------|
|----------------|--------------------|


G
E E E E Q E E E E E E Q E E
|-3----3-----3--3-----|-----3--------3--3------3------|
|-3----3-----3--3-----|-----3--------3--3------3------|
|-4----4-----4--4-----|-----4--------4--4------4------|
|-5----5-----5--5-----|-----5--------5--5------5------|
|---------------------|-------------------------------|
|---------------------|-------------------------------|
|
| Q. H +E +E E. E. E. E. E
|---------3-------(3)-|-(3)-3----(3)----0--(0)----0---|
|---------3-------(3)-|-(3)-------3----(3)--3----(3)--|
|---------4-------(4)-|-(4)---------------------------|
|-5------(5)------(5)-|-(5)---------------------------|
|---------------------|-------------------------------|
|---------------------|-------------------------------|


F#m7
E E E E Q E E E E E E Q E E
|-2---2---2--2---|----2------2-2----2---|
|-2---2---2--2---|----2------2-2----2---|
|-2---2---2--2---|----2------2-2----2---|
|-2---2---2--2---|----2------2-2----2---|
|----------------|----------------------|
|----------------|----------------------|
|
| W Q S E. S E. Q
|----------------|----------------------|
|----------------|-/2---5-2-------------|
|-2--------------|-------------4-2------|
|-2--------------|------------------4---|
|-4--------------|----------------------|
|-2--------------|----------------------|


G
E E E E Q E E E E E E Q E E
|-3----3-----3--3-----|-----3---3-3--3----|
|-3----3-----3--3-----|-----3---3-3--3----|
|-4----4-----4--4-----|-----4---4-4--4----|
|-5----5-----5--5-----|-----5---5-5--5----|
|---------------------|-------------------|
|---------------------|-------------------|
|
| Q. H +E +W
|---------3-------(3)-|-(3)---------------|
|---------3-------(3)-|-(3)---------------|
|---------4-------(4)-|-(4)---------------|
|-5------(5)------(5)-|-(5)---------------|
|---------------------|-------------------|
|---------------------|-------------------|


A
E E E E Q E E E E E E Q E E
|-5---5---5--5---|-----5-------5-5-------5-------|
|-5---5---5--5---|-----5-------5-5-------5-------|
|-6---6---6--6---|-----6-------6-6-------6-------|
|-7---7---7--7---|-----7-------7-7-------7-------|
|----------------|-------------------------------|
|----------------|-------------------------------|
|
| W +E S S S S E S S S Q +S
|----------------|-------------------------------|
|-2--------------|-(2)-2-3-2-0-------------------|
|-2--------------|-(2)---------2-0-2-0-----------|
|-2--------------|-(2)-----------------4-----(4)-|
|-0--------------|-(0)---------------------------|
|----------------|-------------------------------|


G
E E E E Q E E E E E E Q E E
|-3---3---3--3---|-----3---3-3--3----|
|-3---3---3--3---|-----3---3-3--3----|
|-4---4---4--4---|-----4---4-4--4----|
|-5---5---5--5---|-----5---5-5--5----|
|----------------|-------------------|
|----------------|-------------------|
|
| W +W
|----------------|-------------------|
|----------------|-------------------|
|-4--------------|-(4)---------------|
|-5--------------|-(5)---------------|
|-5--------------|-(5)---------------|
|-3--------------|-(3)---------------|


F#m7
E E E E Q E E E E E E Q E E
|-2---2---2--2---|-----2-----2--2----2---|
|-2---2---2--2---|-----2-----2--2----2---|
|-2---2---2--2---|-----2-----2--2----2---|
|-2---2---2--2---|-----2-----2--2----2---|
|----------------|-----------------------|
|----------------|-----------------------|
|
| W +E Q. +Q E E
|----------------|-----------------------|
|----------------|-----------------------|
|-2--------------|-(2)-4b6-----(4)r------|
|-2--------------|-(2)---------------2-4-|
|-4--------------|-(4)-------------------|
|-2--------------|-(2)-------------------|


G
E E E E Q E E E E E E Q E E
|-3----3-----3--3-----|-----3---3-3--3---|
|-3----3-----3--3-----|-----3---3-3--3---|
|-4----4-----4--4-----|-----4---4-4--4---|
|-5----5-----5--5-----|-----5---5-5--5---|
|---------------------|------------------|
|---------------------|------------------|
|
| Q. H +E +W
|---------3-------(3)-|-(3)--------------|
|---------3-------(3)-|-(3)--------------|
|---------4-------(4)-|-(4)--------------|
|-5------(5)------(5)-|-(5)--------------|
|---------------------|------------------|
|---------------------|------------------|


A Fmaj7
Q. Q. Q +W Q. Q. Q +W 4x
||--5----5----5--|-(5)--------|-0----0----0--|-(0)-----||
||o-5----5----5--|-(5)--------|-1----1----1--|-(1)----o||
||--6----6----6--|-(6)--------|-2----2----2--|-(2)-----||
||--7----7----7--|-(7)--------|-3----3----3--|-(3)-----||
||o-7----7----7--|-(7)--------|-3----3----3--|-(3)----o||
||--5----5----5--|-(5)--------|-1----1----1--|-(1)-----||
|
| W +W W +W 4x
||---------------|------------|--------------|---------||
||o--------------|------------|--------------|--------o||
||--2------------|-(2)--------|--------------|---------||
||--2------------|-(2)--------|-3------------|-(3)-----||
||o-0------------|-(0)--------|-3------------|-(3)----o||
||---------------|------------|-1------------|-(1)-----||


Guitar Solo
E E E E E E E E E E E E E E E E
|---------------------------------|---------------------------------|
|---------------------------------|---------------------------------|
|---------------------------------|---------------------------------|
|---------------------------------|---------------------------------|
|---------------------------------|---------------------------------|
|-5---4---5---4---5---4---5---4---|-5---4---5---4---5---4---5---4---|
|
| S S S S S S S S S S S S S S S S S S S S S S S S S S S S S S S S
|---------------------------------|---------------------------------|
|---------------------------------|---------------------------------|
|---------------------------------|---------------------------------|
|---------------------------------|---------------------------------|
|-4-0-0-0-0-0-4-0-0-0-0-0-4-0-0-0-|-4-0-0-0-0-0-5-0-0-0-0-0-7-0-0-0-|
|---------------------------------|---------------------------------|


E E E E E E E E E E E E E E E E
|---------------------------------|---------------------------------|
|---------------------------------|---------------------------------|
|---------------------------------|---------------------------------|
|---------------------------------|---------------------------------|
|---------------------------------|---------------------------------|
|-1---0---1---0---1---0---1---0---|-1---0---1---0---1---0---1---0---|
|
| S S S S S S S S S S S S S S S S S S S S S S S S S S S S S S S S
|---------------------------------|---------------------------------|
|---------------------------------|---------------------------------|
|---------------------------------|---------------------------------|
|---------------------------------|---------------------------------|
|-3-0-0-0-0-0-3-0-0-0-0-0-3-0-0-0-|-3-0-0-0-0-0-------------0-0-0-0-|
|---------------------------------|-------------3-3-3-3-3-3---------|


E E E E E E E E E E E E E E E E
|---------------------------------|---------------------------------|
|---------------------------------|---------------------------------|
|---------------------------------|---------------------------------|
|---------------------------------|---------------------------------|
|---------------------------------|---------------------------------|
|-5---4---5---4---5---4---5---4---|-5---4---5---4---5---4---5---4---|
|
| S S S S S S S S S S S S S S S S S S S S S S S S S S S S S S S S
|---------------------------------|---------------------------------|
|---------------------------------|---------------------------------|
|---------------------------------|---------------------------------|
|---------------------------------|---------------------------------|
|-4-0-0-0-0-0-4-0-0-0-0-0-4-0-0-0-|-4-0-0-0-0-0-5-0-0-0-0-0-7-0-0-0-|
|---------------------------------|---------------------------------|


E E E E E E E E E E E E E E E E
|---------------------------------|---------------------------------|
|---------------------------------|---------------------------------|
|---------------------------------|---------------------------------|
|---------------------------------|---------------------------------|
|---------------------------------|---------------------------------|
|-1---0---1---0---1---0---1---0---|-1---0---1---0---1---0---1---0---|
|
| S S S S S S S S S S S S S S S S S S S S S S S S S S S S S S S S
|---------------------------------|---------------------------------|
|---------------------------------|---------------------------------|
|---------------------------------|---------------------------------|
|---------------------------------|---------------------------------|
|-3-0-0-0-0-0-3-0-0-0-0-0-3-0-0-0-|-3-0-0-0-0-0---------------------|
|---------------------------------|-------------3-3-3-3-5-5-5-5-5-5-|


E E E E E E E E E E E E E E E E
|---------------------------|----------------------------|
|---------------------------|----------------------------|
|---------------------------|----------------------------|
|---------------------------|----------------------------|
|---------------------------|----------------------------|
|--5----4---5--4---5--4-5-4-|---5----4-5---4----5--4-5-4-|
|
| Q +Q H Q. +E H
|---------------------------|----------------------------|
|-----------------10--------|-(10)-------(10)--10--------|
|-12b14---(12)---(12)-------|--12b14-----(12)-(12)-------|
|---------------------------|----------------------------|
|---------------------------|----------------------------|
|---------------------------|----------------------------|


E E E E E E E E E E E E E E E E
|------------------------------------------------------|---------------------------|
|------------------------------------------------------|---------------------------|
|------------------------------------------------------|---------------------------|
|------------------------------------------------------|---------------------------|
|------------------------------------------------------|---------------------------|
|--1---0------1------0------1------0------1------0-----|-1-0-1---0----1-0--1----0--|
|
| |--3---| |----3----| |----3----| |----3----|
| E E E E E E E E E E E E Q S S S E. E. E.
|------------------------------------------------------|---------------------------|
|-10-8---(8)-10---8----(8)-10---8----(8)-10---8----(8)-|---------------------------|
|---------9--(9)-(9)----9--(9)-(9)----9--(9)-(9)----9--|-7---9-7-5-----------------|
|------------------------------------------------------|-----------7----5----5-----|
|------------------------------------------------------|---------------------------|
|------------------------------------------------------|---------------------------|


E E E E E E E E E E E E E E E E E E E E E E E E
|-----------------|-----------------|-----------------------------------------|
|-----------------|-----------------|-----------------------------------------|
|-----------------|-----------------|-----------------------------------------|
|-----------------|-----------------|-----------------------------------------|
|-----------------|-----------------|-----------------------------------------|
|-5-4-5-4-5-4-5-4-|-5-4-5-4-5-4-5-4-|-1---0----1----0----1----0-----1----0----|
|
| |--3---| |---3---| |---3---| |---3---|
| Q Q Q Q H H E E E E E E E E E E E E
|-----------------|-----------------|-----------------------------------------|
|-----------------|-----------------|-------10-9----------------11-10---------|
|---------5-------|-5---------------|---9--------10--------10---------11------|
|-5---7-------7---|---------7-------|-7---------------11-9-----------------12-|
|-----------------|-----------------|-----------------------------------------|
|-----------------|-----------------|-----------------------------------------|


E E E E E E E E
|------------------------------------------------|
|------------------------------------------------|
|------------------------------------------------|
|------------------------------------------------|
|------------------------------------------------|
|--1----0-----1----0-----1----0-----1----0-------|
|
| |---3---| |---3---| |---3---| |---3---|
| E E E E E E E E E E E E
|------------------------------------------------|
|---------12-11-----------------13-12------------|
|----11---------12---------12---------13---------|
|-10-----------------13-11-----------------14----|
|------------------------------------------------|
|------------------------------------------------|


E E E E E E E E E E E E E E E E
|-------------------------|---------------------------|
|-------------------------|---------------------------|
|-------------------------|---------------------------|
|-------------------------|---------------------------|
|-------------------------|---------------------------|
|--5----4-5-4--5----4-5-4-|--5----4-5--4--5---4--5--4-|
|
| H H Q. E E Q E
|-------------------------|------------------17----17-|
|-17b20r======17b20r======|=17b20r====17-20-(20)---19-|
|-------------------------|---------------------------|
|-------------------------|---------------------------|
|-------------------------|---------------------------|
|-------------------------|---------------------------|


E E E E E E E E E E E E E E E E
|-------------------------------------------------|----------------------------------------------------|
|-------------------------------------------------|----------------------------------------------------|
|-------------------------------------------------|----------------------------------------------------|
|-------------------------------------------------|----------------------------------------------------|
|-------------------------------------------------|----------------------------------------------------|
|--1-----0-----1-----0-----1-----0-----1-----0----|--1-----0-----1-----0-----1-----0-----1-----0-------|
|
| S S S S S S S S S S S S S S S S S S S S S S S S S S S S S S S S
|-14-15-15-15-15-15-15-15-14-15-15-15-15-14-15-15-|-15-15-15-15-14-15-15-15-15-15-15-15-15-15-15-15----|
|-16-17-17-17-17-17-17-17-16-17-17-17-17-16-17-17-|-17-17-17-17-16-17-17-17-17-17-17-17-17-17-17-17----|
|-------------------------------------------------|----------------------------------------------------|
|-------------------------------------------------|----------------------------------------------------|
|-------------------------------------------------|----------------------------------------------------|
|-------------------------------------------------|----------------------------------------------------|


E E E E E E E E E E E E E E E E
|-------------------------------------------------|--------------------------|
|-------------------------------------------------|--------------------------|
|-------------------------------------------------|--------------------------|
|-------------------------------------------------|--------------------------|
|-------------------------------------------------|--------------------------|
|--5-----4-----5-----4-----5-----4-----5-----4----|--5-----4-5--4--5-4--5--4-|
|
| S S S S S S S S S S S S S S S S S S Q E Q E E
|-14-15-15-15-14-15-15-15-15-15-15-15-15-15-15-15-|-15-15-17---15-17---15-17-|
|-16-17-17-17-16-17-17-17-17-17-17-17-17-17-17-17-|-17-17--------------------|
|-------------------------------------------------|--------------------------|
|-------------------------------------------------|--------------------------|
|-------------------------------------------------|--------------------------|
|-------------------------------------------------|--------------------------|


E E E E E E E E E E E E E E E E
|------------------------|--------------------------------------------|
|------------------------|--------------------------------------------|
|------------------------|--------------------------------------------|
|------------------------|--------------------------------------------|
|------------------------|--------------------------------------------|
|--1----0---1--0-1-0-1-0-|--1----0------1--0----1------0--1----0------|
|
| Q +H. E. +E. E. +E. E. +S
|-17b19r==(17)-----------|-17b19r==(17)---17b19r==(17)---17b19r==(17)-|
|------------------------|--------------------------------------------|
|------------------------|--------------------------------------------|
|------------------------|--------------------------------------------|
|------------------------|--------------------------------------------|
|------------------------|--------------------------------------------|


E-Bow
E E E E E E E E E E E E E E E E
|--------------------|--------------------|
|--------------------|--------------------|
|--------------------|--------------------|
|--------------------|--------------------|
|--------------------|--------------------|
|---5--4-5-4-5-4-5-4-|---5--4-5-4-5-4-5-4-|
|
| +W +W
|-(17)---------------|-(17)---------------|
|--------------------|--------------------|
|--------------------|--------------------|
|--------------------|--------------------|
|--------------------|--------------------|
|--------------------|--------------------|
|
| Gtr IV
| W +H H
|--------------------|--------------------|
|--------------------|--------------------|
|---6----------------|--(6)-------9-------|
|--------------------|--------------------|
|--------------------|--------------------|
|--------------------|--------------------|


E E E E E E E E E E E E E E E E
|--------------------|-----------------------|
|--------------------|-----------------------|
|--------------------|-----------------------|
|--------------------|-----------------------|
|--------------------|-----------------------|
|---1--0-1-0-1-0-1-0-|---1--0-1-0---1-0-1-0--|
|
| +W +W
|-(17)---------------|-(17)------------------|
|--------------------|-----------------------|
|--------------------|-----------------------|
|--------------------|-----------------------|
|--------------------|-----------------------|
|--------------------|-----------------------|
|
| W Q. S S H
|--------------------|-----------------------|
|--------------------|-----------------------|
|---5----------------|---4------5-4-2--------|
|--------------------|-----------------------|
|--------------------|-----------------------|
|--------------------|-----------------------|


E E E E E E E E E E E E E E E E
|--------------------|--------------------|
|--------------------|--------------------|
|--------------------|--------------------|
|--------------------|--------------------|
|--------------------|--------------------|
|---5--4-5-4-5-4-5-4-|---5--4-5-4-5-4-5-4-|
|
| +W +W
|-(17)---------------|-(17)---------------|
|--------------------|--------------------|
|--------------------|--------------------|
|--------------------|--------------------|
|--------------------|--------------------|
|--------------------|--------------------|
|
| W +H H
|--------------------|--------------------|
|--------------------|--------------------|
|---6----------------|--(6)-------9-------|
|--------------------|--------------------|
|--------------------|--------------------|
|--------------------|--------------------|


E E E E E E E E E E E E E E E E
|--------------------|--------------------|
|--------------------|--------------------|
|--------------------|--------------------|
|--------------------|--------------------|
|--------------------|--------------------|
|---1--0-1-0-1-0-1-0-|---1--0-1-0-1-0-1-0-|
|
| +W +W
|-(17)---------------|-(17)---------------|
|--------------------|--------------------|
|--------------------|--------------------|
|--------------------|--------------------|
|--------------------|--------------------|
|--------------------|--------------------|
|
| W H H
|--------------------|--------------------|
|--------------------|--------------------|
|---5----------------|---7--------5-------|
|--------------------|--------------------|
|--------------------|--------------------|
|--------------------|--------------------|


E E E E E E E E E E E E E E E E
|--------------------|--------------------|
|--------------------|--------------------|
|--------------------|--------------------|
|--------------------|--------------------|
|--------------------|--------------------|
|---5--4-5-4-5-4-5-4-|---5--4-5-4-5-4-5-4-|
|
| +W +W
|-(17)---------------|-(17)---------------|
|--------------------|--------------------|
|--------------------|--------------------|
|--------------------|--------------------|
|--------------------|--------------------|
|--------------------|--------------------|
|
| W +H H
|--------------------|--------------------|
|--------------------|--------------------|
|---6----------------|--(6)-------9-------|
|--------------------|--------------------|
|--------------------|--------------------|
|--------------------|--------------------|


E E E E E E E E E E E E E E E E
|-----------------|---------------------|
|-----------------|---------------------|
|-----------------|---------------------|
|-----------------|---------------------|
|-----------------|---------------------|
|-1-0-1-0-1-0-1-0-|-1--0-1-0---1-0-1-0--|
|
| W W
|-----------------|---------------------|
|-----------------|---------------------|
|-----------------|---------------------|
|-----------------|---------------------|
|-----------------|---------------------|
|-----------------|---------------------|
|
| W Q. S S H
|-----------------|---------------------|
|-----------------|---------------------|
|-5---------------|-4------5-4-2--------|
|-----------------|---------------------|
|-----------------|---------------------|
|-----------------|---------------------|


E E E E E E E E E E E E E E E E E E E E E E E E E E E E E E E E
|-----------------|-------------------|------------------|------------------|
|-----------------|-------------------|------------------|------------------|
|-----------------|-------------------|------------------|------------------|
|-----------------|-------------------|------------------|------------------|
|-----------------|-------------------|------------------|------------------|
|-5-4-5-4-5-4-5-4-|--5--4-5-4-5-4-5-4-|--1-0-1-0-1-0-1-0-|--1-0-1-0-1-0-1-0-|
|
| W W W W
|-----------------|-------------------|------------------|------------------|
|-----------------|-------------------|------------------|------------------|
|-----------------|-------------------|------------------|------------------|
|-----------------|-------------------|------------------|------------------|
|-----------------|-------------------|------------------|------------------|
|-----------------|-------------------|------------------|------------------|
|
| W +H H W W
|-----------------|-------------------|------------------|------------------|
|-----------------|-------------------|------------------|------------------|
|-6---------------|-(6)-------9-------|-10---------------|-12---------------|
|-----------------|-------------------|------------------|------------------|
|-----------------|-------------------|------------------|------------------|
|-----------------|-------------------|------------------|------------------|


E E E E E E E E E E E E E E E E
|---------------------------------------|------------------------------------|
|---------------------------------------|------------------------------------|
|---------------------------------------|------------------------------------|
|---------------------------------------|------------------------------------|
|---------------------------------------|------------------------------------|
|--5----4---5-----4---5-----4---5-----4-|---5-----4---5-----4--5--4-----5--4-|
|
| W W
|---------------------------------------|------------------------------------|
|---------------------------------------|------------------------------------|
|---------------------------------------|------------------------------------|
|---------------------------------------|------------------------------------|
|---------------------------------------|------------------------------------|
|---------------------------------------|------------------------------------|
|
| Q +Q +Q +Q +Q +Q E. E. E
|---------------------------------------|------------------------------------|
|---------------------------------------|------------------------------------|
|-12b14r==(12)b14r==(12)b14r==(12)b14r==|=(12)b14r==(12)b14r==17----16----14-|
|---------------------------------------|------------------------------------|
|---------------------------------------|------------------------------------|
|---------------------------------------|------------------------------------|


E E E E E E E E E E E E E E E E
|-------------------------|--------------------|
|-------------------------|--------------------|
|-------------------------|--------------------|
|-------------------------|--------------------|
|-------------------------|--------------------|
|--1--0-----1--0--1-0-1-0-|---1--0-1-0-1-0-1-0-|
|
| W W
|-------------------------|--------------------|
|-------------------------|--------------------|
|-------------------------|--------------------|
|-------------------------|--------------------|
|-------------------------|--------------------|
|-------------------------|--------------------|
|
| E. E. E H +W
|-------------------------|--------------------|
|-------------------------|--------------------|
|-17----16----14-12-------|-(12)---------------|
|-------------------------|--------------------|
|-------------------------|--------------------|
|-------------------------|--------------------|


E E E E E E E E E E E E E E E E
|------------------|---------------------------|
|------------------|---------------------------|
|------------------|---------------------------|
|------------------|---------------------------|
|------------------|---------------------------|
|--5-4-5-4-5-4-5-4-|---5--4-5-4--5--4-----5--4-|
|
| W W
|------------------|---------------------------|
|------------------|---------------------------|
|------------------|---------------------------|
|------------------|---------------------------|
|------------------|---------------------------|
|------------------|---------------------------|
|
| W +H E. E. E
|------------------|---------------------------|
|------------------|---------------------------|
|-14---------------|-(14)-------17----16----14-|
|------------------|---------------------------|
|------------------|---------------------------|
|------------------|---------------------------|


E E E E E E E E E E E E E E E E
|---------------------|--------------------|
|---------------------|--------------------|
|---------------------|--------------------|
|---------------------|--------------------|
|---------------------|--------------------|
|--1--0-1--0--1-0-1-0-|--1--0-1-0-1-0-1-0--|
|
| W W
|---------------------|--------------------|
|---------------------|--------------------|
|---------------------|--------------------|
|---------------------|--------------------|
|---------------------|--------------------|
|---------------------|--------------------|
|
| Q. Q. Q +W
|---------------------|--------------------|
|---------------------|--------------------|
|-16------12------9---|-(9)----------------|
|---------------------|--------------------|
|---------------------|--------------------|
|---------------------|--------------------|


E E E E E E E E E E E E E E E E
|-------------------|-------------------|
|-------------------|-------------------|
|-------------------|-------------------|
|-------------------|-------------------|
|-------------------|-------------------|
|---5-4-5-4-5-4-5-4-|--5-4-5-4--5-4-5-4-|
|
| W W
|-------------------|-------------------|
|-------------------|-------------------|
|-------------------|-------------------|
|-------------------|-------------------|
|-------------------|-------------------|
|-------------------|-------------------|
|
| W H H
|-------------------|-------------------|
|-------------------|-------------------|
|-/18---------------|-16-------14-------|
|-------------------|-------------------|
|-------------------|-------------------|
|-------------------|-------------------|


E E E E E E E E E E E E E E E E
|-----------------------------------|---------------------|
|-----------------------------------|---------------------|
|-----------------------------------|---------------------|
|-----------------------------------|---------------------|
|-----------------------------------|---------------------|
|--1-0-1-0---1----0-----1---------0-|---1--0-1-0-1-0-1-0--|
|
| W W
|-----------------------------------|---------------------|
|-----------------------------------|---------------------|
|-----------------------------------|---------------------|
|-----------------------------------|---------------------|
|-----------------------------------|---------------------|
|-----------------------------------|---------------------|
|
| H +E +E. +E. +W
|-----------------------------------|---------------------|
|-----------------------------------|---------------------|
|-17-------(17)-(17)b19r==(17)b19r==|=(17)----------------|
|-----------------------------------|---------------------|
|-----------------------------------|---------------------|
|-----------------------------------|---------------------|


E E E E E E E E E E E E E E E E
|---------------------------|--------------------------|
|---------------------------|--------------------------|
|---------------------------|--------------------------|
|---------------------------|--------------------------|
|---------------------------|--------------------------|
|--5-4-5-4---5---4--5-----4-|--5--4-5--4-5--4--5-----4-|
|
| W W
|---------------------------|--------------------------|
|---------------------------|--------------------------|
|---------------------------|--------------------------|
|---------------------------|--------------------------|
|---------------------------|--------------------------|
|---------------------------|--------------------------|
|
| H +E E. E. Q. Q E. E.
|---------------------------|--------------------------|
|---------------------------|--------------------------|
|-18-------(18)-19----21----|-19------18---16----14----|
|---------------------------|--------------------------|
|---------------------------|--------------------------|
|---------------------------|--------------------------|


E E E E E E E E E E E E E E E E
|------------------|-------------------|
|------------------|-------------------|
|------------------|-------------------|
|------------------|-------------------|
|------------------|-------------------|
|--1-0-1-0-1-0-1-0-|--1-0-1-0--1-0-1-0-|
|
| W W
|------------------|-------------------|
|------------------|-------------------|
|------------------|-------------------|
|------------------|-------------------|
|------------------|-------------------|
|------------------|-------------------|
|
| W H H
|------------------|-------------------|
|------------------|-------------------|
|-17---------------|-16-------14-------|
|------------------|-------------------|
|------------------|-------------------|
|------------------|-------------------|


E E E E E E E E E E E E E E E E
|---------------------------------------|-----------------------------------------|
|---------------------------------------|-----------------------------------------|
|---------------------------------------|-----------------------------------------|
|---------------------------------------|-----------------------------------------|
|---------------------------------------|-----------------------------------------|
|--5----4---5-----4---5-----4---5-----4-|---5-----4---5-----4---5-----4---5-----4-|
|
| W W
|---------------------------------------|-----------------------------------------|
|---------------------------------------|-----------------------------------------|
|---------------------------------------|-----------------------------------------|
|---------------------------------------|-----------------------------------------|
|---------------------------------------|-----------------------------------------|
|---------------------------------------|-----------------------------------------|
|
| Q +Q +Q +Q +Q +Q +Q +Q
|---------------------------------------|-----------------------------------------|
|---------------------------------------|-----------------------------------------|
|-12b14r==(12)b14r==(12)b14r==(12)b14r==|=(12)b14r==(12)b14r==(12)b14r==(12)b14r==|
|---------------------------------------|-----------------------------------------|
|---------------------------------------|-----------------------------------------|
|---------------------------------------|-----------------------------------------|


E E E E E E E E E E E E E E E E E E E E E E E E E E E E E E E E
|-------------------------|----------------------|----------------------|--------------------|
|-------------------------|----------------------|----------------------|--------------------|
|-------------------------|----------------------|----------------------|--------------------|
|-------------------------|----------------------|----------------------|--------------------|
|-------------------------|----------------------|----------------------|--------------------|
|---1-----0-1--0--1-0-1-0-|--1--0-1-0-1-0-1-0----|--3--1-3-1-3-1--3---1-|--3--1-3-1-3-1-3-1--|
|
| W W W W
|-------------------------|----------------------|----------------------|--------------------|
|-------------------------|----------------------|----------------------|--------------------|
|-------------------------|----------------------|----------------------|--------------------|
|-------------------------|----------------------|----------------------|--------------------|
|-------------------------|----------------------|----------------------|--------------------|
|-------------------------|----------------------|----------------------|--------------------|
|
| +Q. H E +Q. H E +H. +E E +W
|-------------------------|----------------------|----------------------|--------------------|
|-------------------------|----------------------|----------------------|--------------------|
|-(12)b14-----12r-------9-|-(9)-----7-------7b9==|=(7)-----------(7)r-7-|-(7)----------------|
|-------------------------|----------------------|----------------------|--------------------|
|-------------------------|----------------------|----------------------|--------------------|
|-------------------------|----------------------|----------------------|--------------------|


Prechorus 2
E E E Q E Q E E E Q E Q
|----------------0---(0)-(0)--|---------------0---(0)-(0)--|
|----------------0---(0)-(0)--|---------------0---(0)-(0)--|
|------------2--(2)---2--(2)--|-----------2--(2)---2--(2)--|
|--------2--(2)-(2)-------2---|-------2--(2)-(2)-------2---|
|--0----(0)-(0)---------------|---0--(0)-(0)---------------|
|-----------------------------|----------------------------|
|
| Gtr III
| Q. Q. Q +W
|-17b19---------17r-----------|----------------------------|
|------------------------17---|-(17)-----------------------|
|-----------------------------|----------------------------|
|-----------------------------|----------------------------|
|-----------------------------|----------------------------|
|-----------------------------|----------------------------|


E E E Q E Q E E E Q E Q
|----------------0---(0)--(0)--|---------------0---(0)-(0)--|
|----------------0---(0)--(0)--|---------------0---(0)-(0)--|
|----------------2----2---(2)--|---------------2----2--(2)--|
|------------3--(3)--------3---|-----------3--(3)-------3---|
|--------3--(3)-(3)------------|-------3--(3)-(3)-----------|
|--1----(1)-(1)----------------|---1--(1)-(1)---------------|
|
| Q. Q. +Q +W
|-17b19---------17r------(17)--|-(17)-----------------------|
|------------------------------|----------------------------|
|------------------------------|----------------------------|
|------------------------------|----------------------------|
|------------------------------|----------------------------|
|------------------------------|----------------------------|


E E E Q E Q E E E Q E Q
|----------------0---(0)-(0)--|---------------0---(0)-(0)--|
|----------------0---(0)-(0)--|---------------0---(0)-(0)--|
|------------2--(2)---2--(2)--|-----------2--(2)---2--(2)--|
|--------2--(2)-(2)-------2---|-------2--(2)-(2)-------2---|
|--0----(0)-(0)---------------|---0--(0)-(0)---------------|
|-----------------------------|----------------------------|
|
| Q. Q. Q +W
|-17b19---------17r-----------|----------------------------|
|------------------------17---|-(17)-----------------------|
|-----------------------------|----------------------------|
|-----------------------------|----------------------------|
|-----------------------------|----------------------------|
|-----------------------------|----------------------------|


E E E Q E Q E E E Q E Q
|----------------0---(0)--(0)--|---------------0---(0)-(0)--|
|----------------0---(0)--(0)--|---------------0---(0)-(0)--|
|----------------2----2---(2)--|---------------2----2--(2)--|
|------------3--(3)--------3---|-----------3--(3)-------3---|
|--------3--(3)-(3)------------|-------3--(3)-(3)-----------|
|--1----(1)-(1)----------------|---1--(1)-(1)---------------|
|
| Q. Q. +Q +W
|-17b19---------17r------(17)--|-(17)-----------------------|
|------------------------------|----------------------------|
|------------------------------|----------------------------|
|------------------------------|----------------------------|
|------------------------------|----------------------------|
|------------------------------|----------------------------|


E E E Q E Q E E E Q E Q
|----------------0---(0)-(0)--|---------------0---(0)-(0)--|
|----------------0---(0)-(0)--|---------------0---(0)-(0)--|
|------------2--(2)---2--(2)--|-----------2--(2)---2--(2)--|
|--------2--(2)-(2)-------2---|-------2--(2)-(2)-------2---|
|--0----(0)-(0)---------------|---0--(0)-(0)---------------|
|-----------------------------|----------------------------|
|
| Q. Q. Q +W
|-17b19---------17r-----------|----------------------------|
|------------------------17---|-(17)-----------------------|
|-----------------------------|----------------------------|
|-----------------------------|----------------------------|
|-----------------------------|----------------------------|
|-----------------------------|----------------------------|


E E E Q E Q E E E Q E Q
|----------------0---(0)--(0)--|---------------0---(0)-(0)--|
|----------------0---(0)--(0)--|---------------0---(0)-(0)--|
|----------------2----2---(2)--|---------------2----2--(2)--|
|------------3--(3)--------3---|-----------3--(3)-------3---|
|--------3--(3)-(3)------------|-------3--(3)-(3)-----------|
|--1----(1)-(1)----------------|---1--(1)-(1)---------------|
|
| Q. Q. +Q +W
|-17b19---------17r------(17)--|-(17)-----------------------|
|------------------------------|----------------------------|
|------------------------------|----------------------------|
|------------------------------|----------------------------|
|------------------------------|----------------------------|
|------------------------------|----------------------------|


E E E Q E Q E E E Q E Q
|----------------0---(0)-(0)--|---------------0---(0)-(0)--|
|----------------0---(0)-(0)--|---------------0---(0)-(0)--|
|------------2--(2)---2--(2)--|-----------2--(2)---2--(2)--|
|--------2--(2)-(2)-------2---|-------2--(2)-(2)-------2---|
|--0----(0)-(0)---------------|---0--(0)-(0)---------------|
|-----------------------------|----------------------------|
|
| Q. Q. Q +W
|-17b19---------17r-----------|----------------------------|
|------------------------17---|-(17)-----------------------|
|-----------------------------|----------------------------|
|-----------------------------|----------------------------|
|-----------------------------|----------------------------|
|-----------------------------|----------------------------|


E E E Q E Q E E E Q E Q
|-----------------0-----(0)-(0)--|---------------0---(0)-(0)--|
|-----------------0-----(0)-(0)--|---------------0---(0)-(0)--|
|-----------------2------2--(2)--|---------------2----2--(2)--|
|-------------3--(3)---------3---|-----------3--(3)-------3---|
|---------3--(3)-(3)-------------|-------3--(3)-(3)-----------|
|--1-----(1)-(1)-----------------|---1--(1)-(1)---------------|
|
| Q. Q. Q +W
|-17b19==========17b20r=====17r--|-(17)-----------------------|
|--------------------------------|----------------------------|
|--------------------------------|----------------------------|
|--------------------------------|----------------------------|
|--------------------------------|----------------------------|
|--------------------------------|----------------------------|


Q E E E E E E E E E E Q E E
|-5--------x--x-----5--5--------5----|----5---5---5-----x--x-|
|-7--------x--x-----7--7--------7----|----7---7---7-----x--x-|
|-7--------x--x-----7--7--------7----|----7---7---7-----x--x-|
|-0--------0--0-----0--0--------0----|----0---0---0-----0--0-|
|------------------------------------|-----------------------|
|------------------------------------|-----------------------|
|
| E S S E S S E S S E S S H +E Q E
|---10-12-14-10-12-14-10-12-14-10-12-|-14-------(14)-15---14-|
|------------------------------------|-----------------------|
|------------------------------------|-----------------------|
|------------------------------------|-----------------------|
|------------------------------------|-----------------------|
|------------------------------------|-----------------------|


Q E E E E E E E E E E Q E E
|--3---x--x--3-3----3-|-------3----3--3--x-x-|
|--5---x--x--5-5----5-|-------5----5--5--x-x-|
|--5---x--x--5-5----5-|-------5----5--5--x-x-|
|--0---0--0--0-0----0-|-------0----0--0--0-0-|
|---------------------|----------------------|
|---------------------|----------------------|
|
| Q. Q. Q +E Q. H
|-14------------------|----------------------|
|--------15-----------|--------------15------|
|----------------14---|-(14)-16--------------|
|---------------------|----------------------|
|---------------------|----------------------|
|---------------------|----------------------|


Q E E E E E E E E E E Q E E
|---5--x-x-5-5---5-|------5--------5--5------x--x-|
|---7--x-x-7-7---7-|------7--------7--7------x--x-|
|---7--x-x-7-7---7-|------7--------7--7------x--x-|
|---0--0-0-0-0---0-|------0--------0--0------0--0-|
|------------------|------------------------------|
|------------------|------------------------------|
|
| W E. E. E E. E. E
|-/19--------------|-/19----17----15-14--15----17-|
|------------------|------------------------------|
|------------------|------------------------------|
|------------------|------------------------------|
|------------------|------------------------------|
|------------------|------------------------------|


Q E E E E E E E E E E Q E E
|--3------x-x--3----3-------3-|----3-----3-3--x--x----|
|--5------x-x--5----5-------5-|----5-----5-5--x--x----|
|--5------x-x--5----5-------5-|----5-----5-5--x--x----|
|--0------0-0--0----0-------0-|----0-----0-0--0--0----|
|-----------------------------|-----------------------|
|-----------------------------|-----------------------|
|
| H +E E. E. Q E H S S
|-----------------------------|-----------------------|
|-17-(17)-----17b19r==17b19r==|=17---15-13------------|
|-----------------------------|-----------------14-16-|
|-----------------------------|-----------------------|
|-----------------------------|-----------------------|
|-----------------------------|-----------------------|


Q E E E E E E E E E E Q E E
|--5---x-x-5-5------5-|------5---5---5---------x-x-|
|--7---x-x-7-7------7-|------7---7---7---------x-x-|
|--7---x-x-7-7------7-|------7---7---7---------x-x-|
|--0---0-0-0-0------0-|------0---0---0---------0-0-|
|---------------------|----------------------------|
|---------------------|----------------------------|
|
| H. E E +H +E Q.
|---------------------|----------------------------|
|------------------15-|-(15)-------(15)-17b19======|
|-14-----------/16----|----------------------------|
|---------------------|----------------------------|
|---------------------|----------------------------|
|---------------------|----------------------------|


Q E E E E E E E E E E Q E E
|---3---x-x--3----3-------3-|----3----3--3-----x-x-*|
|---5---x-x--5----5-------5-|----5----5--5-----x-x-*|
|---5---x-x--5----5-------5-|----5----5--5-----x-x-*|
|---0---0-0--0----0-------0-|----0----0--0-----0-0-*|
|---------------------------|----------------------*|
|---------------------------|----------------------*|
|
| +H Q Q Q Q. Q.
|---------------------------|----------------------*|
|-(17)------17b20---17b19---|---15---13----15------*|
|---------------------------|----------------------*|
|---------------------------|----------------------*|
|---------------------------|----------------------*|
|---------------------------|----------------------*|

 

Duration Legend
---------------
W - whole; H - half; Q - quarter; E - 8th; S - 16th; T - 32nd; X - 64th; a - acciaccatura
+ - note tied to previous; . - note dotted; .. - note double dotted
Uncapitalized letters represent notes that are staccato (1/2 duration)
Irregular groupings are notated above the duration line
Duration letters will always appear directly above the note/fret number it represents the
duration for. Duration letters with no fret number below them represent rests. Multi-
bar rests are notated in the form Wxn, where n is the number of bars to rest for. Low
melody durations appear below the staff

Tablature Legend
----------------
h - hammer-on
p - pull-off
b - bend
pb - pre-bend
r - bend release (if no number after the r, then release immediately)
/\ - slide into or out of (from/to "nowhere")
s - legato slide
S - shift slide
<n> - natural harmonic
[n] - artificial harmonic
n(n) - tapped harmonic
~ - vibrato
tr - trill
T - tap
TP - trem. picking
PM - palm muting
\n/ - tremolo bar dip; n = amount to dip
\n - tremolo bar down
n/ - tremolo bar up
/n\ - tremolo bar inverted dip
= - hold bend; also acts as connecting device for hammers/pulls
<> - volume swell (louder/softer)
x - on rhythm slash represents muted slash
o - on rhythm slash represents single note slash

Misc Legend
-----------
| - bar
|| - double bar
||o - repeat start
o|| - repeat end
*| - double bar (ending)
: - bar (freetime)
$ - Segno
& - Coda
Tempo markers - <E/E./Q/Q./H/H.> = BPM(8/16=s8/s16), where s8 = swing 8ths, s16 = swing 16ths

** Generated using Power Tab Editor by Brad Larsen: The Official Power Tab Web Site

Tabs

musicsupportedhere

EKR Square Logo Orange