Monday, March 27, 2017
Text Size

TIDES

#----------------------------------PLEASE NOTE---------------------------------#
#This file is the author's own work and represents their interpretation of the #
#song. You may only use this file for private study, scholarship, or research. #
#------------------------------------------------------------------------------#
TIDES
As recorded by Hawkwind
(From the 1987 Album XENON CODEX)

Transcribed by UncleDes

Words by Marcel Marceau Music by Huw Lloyd Langton


Gtr I (E A D G B E) - 'Untitled'
Gtr II (E A D G B E) - 'Untitled'

Part I
Q.=122
N.C.
12/8
Gtr I
E E E E Q E E E E Q E E E E Q E E E Q.
|-----------------------|-----------------------|
|-----------------------|-----------------------|
|-------0----------0----|-------0----------0----|
|-----3---3------3---3--|-----3---3------3------|
|---3----------3--------|---3----------3--------|
|-1----------1----------|-1----------1----------|


E E E E Q E E E E Q E E E E Q E E E Q.
|-----------------------|-----------------------|
|-----------------------|-----------------------|
|-------0----------0----|-------0----------0----|
|-----4---4------4---4--|-----4---4------4------|
|---2----------2--------|---2----------2--------|
|-0----------0----------|-0----------0----------|


E E E E Q E E E E Q E E E E Q E E E Q.
|-----------------------|-----------------------|
|-----------------------|-----------------------|
|-------0----------0----|-------0----------0----|
|-----3---3------3---3--|-----3---3------3------|
|---3----------3--------|---3----------3--------|
|-1----------1----------|-1----------1----------|


E E E E Q E E E E Q E E E E Q E E E Q.
|-----------------------|-----------------------|
|-----------------------|-----------------------|
|-------0----------0----|-------0----------0----|
|-----2---2------2---2--|-----2---2------2------|
|---2----------2--------|---2----------2--------|
|-0----------0----------|-0----------0----------|


E E E E Q E E E E Q E E E E Q E E E Q.
|-----------------------|-----------------------|
|-----------------------|-----------------------|
|-------0----------0----|-------0----------0----|
|-----6---6------6---6--|-----6---6------6------|
|---6----------6--------|---6----------6--------|
|-4----------4----------|-4----------4----------|


E E E E Q E E E E Q E E E E Q E E E Q.
|-----------------------|-----------------------|
|-----------------------|-----------------------|
|-------0----------0----|-------0----------0----|
|-----8---8------8---8--|-----8---8------8------|
|---8----------8--------|---8----------8--------|
|-6----------6----------|-6----------6----------|


E E E E Q E E E E Q E E E E Q E E E Q.
|-----------------------|-----------------------|
|-----------------------|-----------------------|
|-------0----------0----|-------0----------0----|
|-----6---6------6---6--|-----6---6------6------|
|---6----------6--------|---6----------6--------|
|-4----------4----------|-4----------4----------|


E E E E Q E E E E Q E E E E Q E E E Q.
|-----------------------|-----------------------|
|-----------------------|-----------------------|
|-------0----------0----|-------0----------0----|
|-----8---8------8---8--|-----8---8------8------|
|---8----------8--------|---8----------8--------|
|-6----------6----------|-6----------6----------|


E E E E Q E E E E Q E E E E Q E E E Q.
|-----------------------|-----------------------|
|-----------------------|-----------------------|
|-------0----------0----|-------0----------0----|
|-----9---9------9---9--|-----9---9------9------|
|---9----------9--------|---9----------9--------|
|-7----------7----------|-7----------7----------|


E E E E E E E E E E E E E E H +H.
|-----------------------------|------------------|
|-----------------------------|------------------|
|--------0------0------0------|-0----------------|
|-----10---10-----10-----10---|---10-------------|
|---9---------9------9------9-|------9----(9)----|
|-8---------------------------|------------------|
|
| Gtr II
| W W
|-----------------------------|------------------|
|-----------------------------|------------------|
|-----------------------------|------------------|
|-----------------------------|------------------|
|-----------------------------|------------------|
|-----------------------------|------------------|


Part II
N.C.
E E E E Q E E E E Q E E E E Q E E E Q.
|-------------------------|-----------------------------------|
|-------------------------|-----------------------------------|
|---------0----------0----|----------0---------------0--------|
|-------3---3------3---3--|--------3---3--------3-------------|
|-----3----------3--------|------3----------3-----------------|
|--1-----------1----------|---1-----------1-------------------|
|
| W. +W +E +Q.
|-------------------------|-----------------------------------|
|-10----------------------|-(10)--------------(10)-(10)b12r===|
|-------------------------|-----------------------------------|
|-------------------------|-----------------------------------|
|-------------------------|-----------------------------------|
|-------------------------|-----------------------------------|


E E E E Q E E E E Q E E E E Q E E E Q.
|------------------------|-------------------------|
|------------------------|-------------------------|
|--------0----------0----|---------0----------0----|
|------2---2------2---2--|-------2---2------2------|
|----2----------2--------|-----2----------2--------|
|-0-----------0----------|--0-----------0----------|
|
| W. +W.
|------------------------|-------------------------|
|-8----------------------|-(8)---------------------|
|------------------------|-------------------------|
|------------------------|-------------------------|
|------------------------|-------------------------|
|------------------------|-------------------------|


E E E E Q E E E E Q E E E E Q E E E Q.
|-------------------------|------------------------------|
|-------------------------|------------------------------|
|---------0----------0----|----------0--------------0----|
|-------3---3------3---3--|--------3---3--------3--------|
|-----3----------3--------|------3----------3------------|
|--1-----------1----------|---1-----------1--------------|
|
| W. +W +E Q.
|-------------------------|------------------------------|
|-10----------------------|-(10)--------------(10)-15----|
|-------------------------|------------------------------|
|-------------------------|------------------------------|
|-------------------------|------------------------------|
|-------------------------|------------------------------|


E E E E Q E E E E Q E E E E Q E E E Q.
|------------------------|-------------------------|
|------------------------|-------------------------|
|--------0----------0----|---------0----------0----|
|------2---2------2---2--|-------2---2------2------|
|----2----------2--------|-----2----------2--------|
|-0-----------0----------|--0-----------0----------|
|
| W. +W.
|------------------------|-------------------------|
|-8----------------------|-(8)---------------------|
|------------------------|-------------------------|
|------------------------|-------------------------|
|------------------------|-------------------------|
|------------------------|-------------------------|


E E E E Q E E E E Q E E E E Q E E E Q.
|------------------------|-------------------------|
|------------------------|-------------------------|
|--------0----------0----|---------0----------0----|
|------6---6------6---6--|-------6---6------6------|
|----6----------6--------|-----6----------6--------|
|-4-----------4----------|--4-----------4----------|
|
| W. +W.
|------------------------|-------------------------|
|-9----------------------|-(9)---------------------|
|------------------------|-------------------------|
|------------------------|-------------------------|
|------------------------|-------------------------|
|------------------------|-------------------------|


E E E E Q E E E E Q E E E E Q E E E Q.
|-------------------------|--------------------------|
|-------------------------|--------------------------|
|---------0----------0----|----------0----------0----|
|-------8---8------8---8--|--------8---8------8------|
|-----8----------8--------|------8----------8--------|
|--6-----------6----------|---6-----------6----------|
|
| W. +W.
|-------------------------|--------------------------|
|-11----------------------|-(11)---------------------|
|-------------------------|--------------------------|
|-------------------------|--------------------------|
|-------------------------|--------------------------|
|-------------------------|--------------------------|


E E E E Q E E E E Q E E E E Q E E E Q.
|------------------------|-------------------------|
|------------------------|-------------------------|
|--------0----------0----|---------0----------0----|
|------6---6------6---6--|-------6---6------6------|
|----6----------6--------|-----6----------6--------|
|-4-----------4----------|--4-----------4----------|
|
| W. +W.
|------------------------|-------------------------|
|-9----------------------|-(9)---------------------|
|------------------------|-------------------------|
|------------------------|-------------------------|
|------------------------|-------------------------|
|------------------------|-------------------------|


E E E E Q E E E E Q E E E E Q E E E Q.
|-------------------------|--------------------------|
|-------------------------|--------------------------|
|---------0----------0----|----------0----------0----|
|-------8---8------8---8--|--------8---8------8------|
|-----8----------8--------|------8----------8--------|
|--6-----------6----------|---6-----------6----------|
|
| W. +W.
|-------------------------|--------------------------|
|-11----------------------|-(11)---------------------|
|-------------------------|--------------------------|
|-------------------------|--------------------------|
|-------------------------|--------------------------|
|-------------------------|--------------------------|


E E E E Q E E E E Q E E E E Q E E E Q.
|-------------------------|--------------------------|
|-------------------------|--------------------------|
|---------0----------0----|----------0----------0----|
|-------9---9------9---9--|--------9---9------9------|
|-----9----------9--------|------9----------9--------|
|--7-----------7----------|---7-----------7----------|
|
| W. +W.
|-------------------------|--------------------------|
|-12----------------------|-(12)---------------------|
|-------------------------|--------------------------|
|-------------------------|--------------------------|
|-------------------------|--------------------------|
|-------------------------|--------------------------|


E E E E E E E E E E E E E E H +H.
|-------------------------------|---------------------|
|-------------------------------|---------------------|
|----------0------0------0------|---0-----------------|
|-------10---10-----10-----10---|------10-------------|
|-----9---------9------9------9-|---------9----(9)----|
|--8----------------------------|---------------------|
|
| W. +W.
|-------------------------------|---------------------|
|-13----------------------------|-(13)----------------|
|-------------------------------|---------------------|
|-------------------------------|---------------------|
|-------------------------------|---------------------|
|-------------------------------|---------------------|


Part III
N.C.
E E E E Q E E E E Q E E E E Q E E E Q.
|-------------------------|-----------------------------------|
|-------------------------|-----------------------------------|
|---------0----------0----|----------0---------------0--------|
|-------3---3------3---3--|--------3---3--------3-------------|
|-----3----------3--------|------3----------3-----------------|
|--1-----------1----------|---1-----------1-------------------|
|
| W. +W +E +Q.
|-------------------------|-----------------------------------|
|-10----------------------|-(10)--------------(10)-(10)b12r===|
|-10----------------------|-(10)--------------(10)-(10)-------|
|-------------------------|-----------------------------------|
|-------------------------|-----------------------------------|
|-------------------------|-----------------------------------|


E E E E Q E E E E Q E E E E Q E E E Q.
|------------------------|-------------------------|
|------------------------|-------------------------|
|--------0----------0----|---------0----------0----|
|------2---2------2---2--|-------2---2------2------|
|----2----------2--------|-----2----------2--------|
|-0-----------0----------|--0-----------0----------|
|
| W. +W.
|------------------------|-------------------------|
|-8----------------------|-(8)---------------------|
|-9----------------------|-(9)---------------------|
|------------------------|-------------------------|
|------------------------|-------------------------|
|------------------------|-------------------------|


E E E E Q E E E E Q E E E E Q E E E Q.
|-------------------------|-------------------------------|
|-------------------------|-------------------------------|
|---------0----------0----|----------0---------------0----|
|-------3---3------3---3--|--------3---3--------3---------|
|-----3----------3--------|------3----------3-------------|
|--1-----------1----------|---1-----------1---------------|
|
| W. +W +E Q.
|-------------------------|-------------------------------|
|-10----------------------|-(10)--------------(10)--15----|
|-10----------------------|-(10)--------------(10)-(10)---|
|-------------------------|-------------------------------|
|-------------------------|-------------------------------|
|-------------------------|-------------------------------|


E E E E Q E E E E Q E E E E Q E E E Q.
|------------------------|-------------------------|
|------------------------|-------------------------|
|--------0----------0----|---------0----------0----|
|------2---2------2---2--|-------2---2------2------|
|----2----------2--------|-----2----------2--------|
|-0-----------0----------|--0-----------0----------|
|
| W. +W.
|------------------------|-------------------------|
|-8----------------------|-(8)---------------------|
|-9----------------------|-(9)---------------------|
|------------------------|-------------------------|
|------------------------|-------------------------|
|------------------------|-------------------------|


E E E E Q E E E E Q E E E E Q E E E Q.
|------------------------|-------------------------|
|------------------------|-------------------------|
|--------0----------0----|---------0----------0----|
|------6---6------6---6--|-------6---6------6------|
|----6----------6--------|-----6----------6--------|
|-4-----------4----------|--4-----------4----------|
|
| W. +W.
|------------------------|-------------------------|
|-9----------------------|-(9)---------------------|
|-8----------------------|-(8)---------------------|
|------------------------|-------------------------|
|------------------------|-------------------------|
|------------------------|-------------------------|


E E E E Q E E E E Q E E E E Q E E E Q.
|-------------------------|--------------------------|
|-------------------------|--------------------------|
|---------0----------0----|----------0----------0----|
|-------8---8------8---8--|--------8---8------8------|
|-----8----------8--------|------8----------8--------|
|--6-----------6----------|---6-----------6----------|
|
| W. +W.
|-------------------------|--------------------------|
|-11----------------------|-(11)---------------------|
|-10----------------------|-(10)---------------------|
|-------------------------|--------------------------|
|-------------------------|--------------------------|
|-------------------------|--------------------------|


E E E E Q E E E E Q E E E E Q E E E Q.
|------------------------|-------------------------|
|------------------------|-------------------------|
|--------0----------0----|---------0----------0----|
|------6---6------6---6--|-------6---6------6------|
|----6----------6--------|-----6----------6--------|
|-4-----------4----------|--4-----------4----------|
|
| W. +W.
|------------------------|-------------------------|
|-9----------------------|-(9)---------------------|
|-8----------------------|-(8)---------------------|
|------------------------|-------------------------|
|------------------------|-------------------------|
|------------------------|-------------------------|


E E E E Q E E E E Q E E E E Q E E E Q.
|-------------------------|--------------------------|
|-------------------------|--------------------------|
|---------0----------0----|----------0----------0----|
|-------8---8------8---8--|--------8---8------8------|
|-----8----------8--------|------8----------8--------|
|--6-----------6----------|---6-----------6----------|
|
| W. +W.
|-------------------------|--------------------------|
|-11----------------------|-(11)---------------------|
|-10----------------------|-(10)---------------------|
|-------------------------|--------------------------|
|-------------------------|--------------------------|
|-------------------------|--------------------------|


E E E E Q E E E E Q E E E E Q E E E Q.
|-------------------------|--------------------------|
|-------------------------|--------------------------|
|---------0----------0----|----------0----------0----|
|-------9---9------9---9--|--------9---9------9------|
|-----9----------9--------|------9----------9--------|
|--7-----------7----------|---7-----------7----------|
|
| W. +W.
|-------------------------|--------------------------|
|-12----------------------|-(12)---------------------|
|-11----------------------|-(11)---------------------|
|-------------------------|--------------------------|
|-------------------------|--------------------------|
|-------------------------|--------------------------|


E E E E E E E E E E E E E E H +H.
|-------------------------------|---------------------|
|-------------------------------|---------------------|
|----------0------0------0------|---0-----------------|
|-------10---10-----10-----10---|------10-------------|
|-----9---------9------9------9-|---------9----(9)----|
|--8----------------------------|---------------------|
|
| W. +W.
|-------------------------------|---------------------|
|-13----------------------------|-(13)----------------|
|-12----------------------------|-(12)----------------|
|-------------------------------|---------------------|
|-------------------------------|---------------------|
|-------------------------------|---------------------|


Part IV
N.C.
E E E E Q E E E E Q E E E E Q E E E Q.
|-------------------------|-----------------------------------|
|-------------------------|-----------------------------------|
|---------0----------0----|----------0---------------0--------|
|-------3---3------3---3--|--------3---3--------3-------------|
|-----3----------3--------|------3----------3-----------------|
|--1-----------1----------|---1-----------1-------------------|
|
| W. +W +E +Q.
|-------------------------|-----------------------------------|
|-10----------------------|-(10)--------------(10)-(10)b12r===|
|-10----------------------|-(10)--------------(10)-(10)-------|
|-------------------------|-----------------------------------|
|-------------------------|-----------------------------------|
|-------------------------|-----------------------------------|


E E E E Q E E E E Q E E E E Q E E E Q.
|------------------------|-------------------------|
|------------------------|-------------------------|
|--------0----------0----|---------0----------0----|
|------2---2------2---2--|-------2---2------2------|
|----2----------2--------|-----2----------2--------|
|-0-----------0----------|--0-----------0----------|
|
| W. +W.
|------------------------|-------------------------|
|-8----------------------|-(8)---------------------|
|-9----------------------|-(9)---------------------|
|------------------------|-------------------------|
|------------------------|-------------------------|
|------------------------|-------------------------|


E E E E Q E E E E Q E E E E Q E E E Q.
|-------------------------|-------------------------------|
|-------------------------|-------------------------------|
|---------0----------0----|----------0---------------0----|
|-------3---3------3---3--|--------3---3--------3---------|
|-----3----------3--------|------3----------3-------------|
|--1-----------1----------|---1-----------1---------------|
|
| W. +W +E Q.
|-------------------------|-------------------------------|
|-10----------------------|-(10)--------------(10)--15----|
|-10----------------------|-(10)--------------(10)-(10)---|
|-------------------------|-------------------------------|
|-------------------------|-------------------------------|
|-------------------------|-------------------------------|


E E E E Q E E E E Q E E E E Q E E E Q.
|------------------------|-------------------------|
|------------------------|-------------------------|
|--------0----------0----|---------0----------0----|
|------2---2------2---2--|-------2---2------2------|
|----2----------2--------|-----2----------2--------|
|-0-----------0----------|--0-----------0----------|
|
| W. +W.
|------------------------|-------------------------|
|-8----------------------|-(8)---------------------|
|-9----------------------|-(9)---------------------|
|------------------------|-------------------------|
|------------------------|-------------------------|
|------------------------|-------------------------|


E E E E Q E E E E Q E E E E Q E E E Q.
|------------------------|-------------------------|
|------------------------|-------------------------|
|--------0----------0----|---------0----------0----|
|------6---6------6---6--|-------6---6------6------|
|----6----------6--------|-----6----------6--------|
|-4-----------4----------|--4-----------4----------|
|
| W. +W.
|------------------------|-------------------------|
|-9----------------------|-(9)---------------------|
|-8----------------------|-(8)---------------------|
|------------------------|-------------------------|
|------------------------|-------------------------|
|------------------------|-------------------------|


E E E E Q E E E E Q E E E E Q E E E Q.
|-------------------------|--------------------------|
|-------------------------|--------------------------|
|---------0----------0----|----------0----------0----|
|-------8---8------8---8--|--------8---8------8------|
|-----8----------8--------|------8----------8--------|
|--6-----------6----------|---6-----------6----------|
|
| W. +W.
|-------------------------|--------------------------|
|-11----------------------|-(11)---------------------|
|-10----------------------|-(10)---------------------|
|-------------------------|--------------------------|
|-------------------------|--------------------------|
|-------------------------|--------------------------|


E E E E Q E E E E Q E E E E Q E E E Q.
|------------------------|-------------------------|
|------------------------|-------------------------|
|--------0----------0----|---------0----------0----|
|------6---6------6---6--|-------6---6------6------|
|----6----------6--------|-----6----------6--------|
|-4-----------4----------|--4-----------4----------|
|
| W. +W.
|------------------------|-------------------------|
|-9----------------------|-(9)---------------------|
|-8----------------------|-(8)---------------------|
|------------------------|-------------------------|
|------------------------|-------------------------|
|------------------------|-------------------------|


E E E E Q E E E E Q E E E E Q E E E Q.
|-------------------------|--------------------------|
|-------------------------|--------------------------|
|---------0----------0----|----------0----------0----|
|-------8---8------8---8--|--------8---8------8------|
|-----8----------8--------|------8----------8--------|
|--6-----------6----------|---6-----------6----------|
|
| W. +W.
|-------------------------|--------------------------|
|-11----------------------|-(11)---------------------|
|-10----------------------|-(10)---------------------|
|-------------------------|--------------------------|
|-------------------------|--------------------------|
|-------------------------|--------------------------|


E E E E Q E E E E Q E E E E Q E E E Q.
|-------------------------|--------------------------|
|-------------------------|--------------------------|
|---------0----------0----|----------0----------0----|
|-------9---9------9---9--|--------9---9------9------|
|-----9----------9--------|------9----------9--------|
|--7-----------7----------|---7-----------7----------|
|
| W. +W.
|-11----------------------|-(11)---------------------|
|-12----------------------|-(12)---------------------|
|-11----------------------|-(11)---------------------|
|-------------------------|--------------------------|
|-------------------------|--------------------------|
|-------------------------|--------------------------|


Q.=100 Q.=85 Q.=70 Q.=60
E E E E E E E E E E E E E E Q T T T T +E +H.
|-------------------------------|------------0-(0)-(0)-(0)--(0)--(0)----*|
|-------------------------------|---------------0--(0)-(0)--(0)--(0)----*|
|----------0------0------0------|---0---------------0--(0)--(0)--(0)----*|
|-------10---10-----10-----10---|------10--------------10--(10)-(10)----*|
|-----9---------9------9------9-|---------9-----------------------------*|
|--8----------------------------|---------------------------------------*|
|
| W. +W.
|-15----------------------------|-(15)----------------------------------*|
|-13----------------------------|-(13)----------------------------------*|
|-12----------------------------|-(12)----------------------------------*|
|-------------------------------|---------------------------------------*|
|-------------------------------|---------------------------------------*|
|-------------------------------|---------------------------------------*|

 

Duration Legend
---------------
W - whole; H - half; Q - quarter; E - 8th; S - 16th; T - 32nd; X - 64th; a - acciaccatura
+ - note tied to previous; . - note dotted; .. - note double dotted
Uncapitalized letters represent notes that are staccato (1/2 duration)
Irregular groupings are notated above the duration line
Duration letters will always appear directly above the note/fret number it represents the
duration for. Duration letters with no fret number below them represent rests. Multi-
bar rests are notated in the form Wxn, where n is the number of bars to rest for. Low
melody durations appear below the staff

Tablature Legend
----------------
h - hammer-on
p - pull-off
b - bend
pb - pre-bend
r - bend release (if no number after the r, then release immediately)
/\ - slide into or out of (from/to "nowhere")
s - legato slide
S - shift slide
<n> - natural harmonic
[n] - artificial harmonic
n(n) - tapped harmonic
~ - vibrato
tr - trill
T - tap
TP - trem. picking
PM - palm muting
\n/ - tremolo bar dip; n = amount to dip
\n - tremolo bar down
n/ - tremolo bar up
/n\ - tremolo bar inverted dip
= - hold bend; also acts as connecting device for hammers/pulls
<> - volume swell (louder/softer)
x - on rhythm slash represents muted slash
o - on rhythm slash represents single note slash

Misc Legend
-----------
| - bar
|| - double bar
||o - repeat start
o|| - repeat end
*| - double bar (ending)
: - bar (freetime)
$ - Segno
& - Coda
Tempo markers - <E/E./Q/Q./H/H.> = BPM(8/16=s8/s16), where s8 = swing 8ths, s16 = swing 16ths

** Generated using Power Tab Editor by Brad Larsen: The Official Power Tab Web Site

Tabs

musicsupportedhere

EKR Square Logo Orange