Monday, March 27, 2017
Text Size

SONG OF THE SWORDS (G)

#----------------------------------PLEASE NOTE---------------------------------#
#This file is the author's own work and represents their interpretation of the #
#song. You may only use this file for private study, scholarship, or research. #
#------------------------------------------------------------------------------#
SONG OF THE SWORDS
As recorded by Hawkwind
(From the 1985 Album THE CHRONICLE OF THE BLACK SWORD)
Transcribed by UncleDes
Words by Brock Music by Brock/ Lloyd-Langton/ Davey/ Bainbridge/ Thompson

Gtr I (E A D G B E) - 'Dave Brock'
Gtr II (E A D G B E) - 'Huw Lloyd Langton'
Gtr III (E A D G B E) - 'Squeak!'

Intro
Q=158
4/4
Gtr I
<
W +W
|----------|--------|
|----------|--------|
|-9--------|-(9)----|
|-9--------|-(9)----|
|----------|--------|
|----------|--------|


E5 D5 E5 D5 E5 F5 E5 D5 C5 D5 C5 D5 D#5 D5
E E E E Q. E E E E E Q Q E E E E Q. E E E E E Q Q
||-----------------|------------------||-||-----------------|----------------||
||o----------------|-----------------o||-||o----------------|---------------o||
||--9---7---9----7-|---9---10-10--9---||-||--7---5---7----5-|---7---8-8--7---||
||--9---7---9----7-|---9---10-10--9---||-||--7---5---7----5-|---7---8-8--7---||
||o----------------|-----------------o||-||o----------------|---------------o||
||-----------------|------------------||-||-----------------|----------------||
|
| Gtr II
| E E E E H W E E E E H W
||-----------------|------------------||-||-----------------|----------------||
||o----------------|-----------------o||-||o----------------|---------------o||
||-----------------|------------------||-||-----------------|----------------||
||--9---7---9\-----|------------------||-||--7---5---7\-----|----------------||
||o-7---5---7\-----|-----------------o||-||o-5---3---5\-----|---------------o||
||-----------------|------------------||-||-----------------|----------------||


Verse I
E5 D5 E5 D5 E5 F5 E5
E E E E Q E E E E E E Q Q
||-----------------|--------------------||
||o----------------|-------------------o||
||--9---7---9----7-|-----9---10-10--9---||
||--9---7---9----7-|-----9---10-10--9---||
||o----------------|-------------------o||
||-----------------|--------------------||
|
| E E E E H +W
||-----------------|--------------------||
||o----------------|-------------------o||
||-----------------|--------------------||
||--9---7---9------|-(9)----------------||
||o-7---5---7------|-(7)---------------o||
||-----------------|--------------------||


D5 C5 D5 C5 D5 D#5 D5
E E E E Q E E E E E E Q Q
|-||-----------------|------------------||
|-||o----------------|-----------------o||
|-||--7---5---7----5-|-----7---8-8--7---||
|-||--7---5---7----5-|-----7---8-8--7---||
|-||o----------------|-----------------o||
|-||-----------------|------------------||
|
| E E E E H +W
|-||-----------------|------------------||
|-||o----------------|-----------------o||
|-||-----------------|------------------||
|-||--7---5---7------|-(7)--------------||
|-||o-5---3---5------|-(5)-------------o||
|-||-----------------|------------------||


E5 D5 E5 D5 E5 F5 E5
E E E E Q. E E E E E Q Q
||-----------------|--------------------||
||o----------------|-------------------o||
||--9---7---9----7-|-----9---10-10--9---||
||--9---7---9----7-|-----9---10-10--9---||
||o----------------|-------------------o||
||-----------------|--------------------||
|
| E E E E H +W
||-----------------|--------------------||
||o----------------|-------------------o||
||-----------------|--------------------||
||--9---7---9------|-(9)----------------||
||o-7---5---7------|-(7)---------------o||
||-----------------|--------------------||


D5 C5 D5 C5 D5 D#5 D5
E E E E Q. E E E E E Q Q
|-||-----------------|------------------||
|-||o----------------|-----------------o||
|-||--7---5---7----5-|-----7---8-8--7---||
|-||--7---5---7----5-|-----7---8-8--7---||
|-||o----------------|-----------------o||
|-||-----------------|------------------||
|
| E E E E H +W
|-||-----------------|------------------||
|-||o----------------|-----------------o||
|-||-----------------|------------------||
|-||--7---5---7------|-(7)--------------||
|-||o-5---3---5------|-(5)-------------o||
|-||-----------------|------------------||


Prechorus I
F5 Bb5 G5 C5
PM------------| PM------------|
E E E E E E E E Q E E +H E E E E E E E E Q E E +H
||------------------|---------------|-----------------|----------------||
||o-----------------|---------------|-----------------|---------------o||
||------------------|-3----3-(3)----|-----------------|-5----5-(5)-----||
||--3-3-3-3-3-3-3-3-|-3----3-(3)----|-5-5-5-5-5-5-5-5-|-5----5-(5)-----||
||o-3-3-3-3-3-3-3-3-|-1----1-(1)----|-5-5-5-5-5-5-5-5-|-3----3-(3)----o||
||--1-1-1-1-1-1-1-1-|---------------|-3-3-3-3-3-3-3-3-|----------------||
|
| PM------------| PM------------|
| E E E E E E E E Q E E +H E E E E E E E E Q E E +H
||------------------|---------------|-----------------|----------------||
||o-----------------|---------------|-----------------|---------------o||
||------------------|-3----3-(3)----|-----------------|-5----5-(5)-----||
||------------------|-3----3-(3)----|-----------------|-5----5-(5)-----||
||o-3-3-3-3-3-3-3-3-|-1----1-(1)----|-5-5-5-5-5-5-5-5-|-3----3-(3)----o||
||--1-1-1-1-1-1-1-1-|---------------|-3-3-3-3-3-3-3-3-|----------------||


Chorus I
Aadd2
Q E E. E. Q +E E E. E. Q.
|-0----0-----0---|-(0)-----0--------0----|
|-0----0-----0---|-(0)-----0--------0----|
|-6----6-----6---|-(6)-----6--------6----|
|-7----7-----7---|-(7)-----7--------7----|
|-7----7-----7---|-(7)-----7--------7----|
|-5----5-----5---|-(5)-----5--------5----|
|
| W Q. Q Q.
|----------------|-----------------------|
|----------------|-10b12------10---------|
|----------------|------------------9----|
|----------------|-----------------------|
|----------------|-----------------------|
|----------------|-----------------------|


Gadd6
Q E E. E. Q +E E E. E. Q.
|--0-----0-----0---|-(0)-----0--------0----|
|--0-----0-----0---|-(0)-----0--------0----|
|--4-----4-----4---|-(4)-----4--------4----|
|--5-----5-----5---|-(5)-----5--------5----|
|--5-----5-----5---|-(5)-----5--------5----|
|--3-----3-----3---|-(3)-----3--------3----|
|
| +W Q. Q Q.
|------------------|-----------------------|
|------------------|-10b12------10---------|
|-(9)--------------|------------------9----|
|------------------|-----------------------|
|------------------|-----------------------|
|------------------|-----------------------|


F#m7add2
Q E E. E. Q +E E E. E. Q.
|--0-----0-----0---|-(0)-----0--------0----|
|--0-----0-----0---|-(0)-----0--------0----|
|--2-----2-----2---|-(2)-----2--------2----|
|--4-----4-----4---|-(4)-----4--------4----|
|--4-----4-----4---|-(4)-----4--------4----|
|--2-----2-----2---|-(2)-----2--------2----|
|
| +W Q. Q Q.
|------------------|-----------------------|
|------------------|-10b12------10---------|
|-(9)--------------|------------------9----|
|------------------|-----------------------|
|------------------|-----------------------|
|------------------|-----------------------|


Fmaj7b5
Q E E. E. Q +E E E. E. Q.
|--0-----0---------0--|-(0)--------0------------0-----|
|--0-----0---------0--|-(0)--------0------------0-----|
|--2-----2---------2--|-(2)--------2------------2-----|
|--3-----3---------3--|-(3)--------3------------3-----|
|--3-----3---------3--|-(3)--------3------------3-----|
|--1-----1---------1--|-(1)--------1------------1-----|
|
| |---3---| |---3---|
| +Q Q Q Q E E E E E E E E Q
|---------------------|-------------------------------|
|---------------------|-------------------------------|
|-(9)--9----10----12--|--9--10---9-7--9----10-9-7--9--|
|---------------------|-------------------------------|
|---------------------|-------------------------------|
|---------------------|-------------------------------|


Aadd2
Q E E. E. Q +E E E. E. Q.
|-0----0-----0---|-(0)-----0--------0----|
|-0----0-----0---|-(0)-----0--------0----|
|-6----6-----6---|-(6)-----6--------6----|
|-7----7-----7---|-(7)-----7--------7----|
|-7----7-----7---|-(7)-----7--------7----|
|-5----5-----5---|-(5)-----5--------5----|
|
| W Q. Q Q.
|----------------|-----------------------|
|----------------|-10b12------10---------|
|----------------|------------------9----|
|----------------|-----------------------|
|----------------|-----------------------|
|----------------|-----------------------|


Gadd6
Q E E. E. Q +E E E. E. Q.
|--0-----0-----0---|-(0)-----0-----------0-----|
|--0-----0-----0---|-(0)-----0-----------0-----|
|--4-----4-----4---|-(4)-----4-----------4-----|
|--5-----5-----5---|-(5)-----5-----------5-----|
|--5-----5-----5---|-(5)-----5-----------5-----|
|--3-----3-----3---|-(3)-----3-----------3-----|
|
| +W Q. Q. Q
|------------------|---------------------------|
|------------------|-10b12------10b13r=========|
|-(9)--------------|------------------------9--|
|------------------|---------------------------|
|------------------|---------------------------|
|------------------|---------------------------|


F#m7add2
Q E E. E. Q +E E E. E. Q.
|--0-----0-----0---|-(0)-----0--------0----|
|--0-----0-----0---|-(0)-----0--------0----|
|--2-----2-----2---|-(2)-----2--------2----|
|--4-----4-----4---|-(4)-----4--------4----|
|--4-----4-----4---|-(4)-----4--------4----|
|--2-----2-----2---|-(2)-----2--------2----|
|
| +W Q. Q Q.
|------------------|-----------------------|
|------------------|-10b12------10---------|
|-(9)--------------|------------------9----|
|------------------|-----------------------|
|------------------|-----------------------|
|------------------|-----------------------|


Fmaj7b5
Q E E. E. Q +E E E. E. Q.
|--0-----0----------0----|-(0)-----0--------0----|
|--0-----0----------0----|-(0)-----0--------0----|
|--2-----2----------2----|-(2)-----2--------2----|
|--3-----3----------3----|-(3)-----3--------3----|
|--3-----3----------3----|-(3)-----3--------3----|
|--1-----1----------1----|-(1)-----1--------1----|
|
| |----3-----|
| +H Q Q Q E E Q H
|------------------------|-----------------------|
|------------------------|-13--12-10-------------|
|-(9)-------9----10---12-|---------------12------|
|------------------------|-----------------------|
|------------------------|-----------------------|
|------------------------|-----------------------|


E-string Wankfest I
F5
PM----------------------------------|
E E E E E E E E
|--------------------------------------------|
|--------------------------------------------|
|--------------------------------------------|
|--3---3-----3-----3---3-----3-----3---3-----|
|--3---3-----3-----3---3-----3-----3---3-----|
|--1---1-----1-----1---1-----1-----1---1-----|
|
| S S S S S S S S S S S S S S S S
|-h3-1p0p-h3-1p0p-h3-1p0p-h3-1p0p-h3-1p0p-h3-|
|--------------------------------------------|
|--------------------------------------------|
|--------------------------------------------|
|--------------------------------------------|
|--------------------------------------------|


Bb5
Q E E +H
|---------------------------------------|
|---------------------------------------|
|-3---------------3----(3)--------------|
|-3---------------3----(3)--------------|
|-1---------------1----(1)--------------|
|---------------------------------------|
|
| S S S S S S S S S S S S S E.
|-1p0p-h3-1p0p-h3-1p0p-h3--1p0p-h3-1p0p-|
|---------------------------------------|
|---------------------------------------|
|---------------------------------------|
|---------------------------------------|
|---------------------------------------|


G5
PM----------------------------------|
E E E E E E E E
|--------------------------------------------|
|--------------------------------------------|
|--------------------------------------------|
|--5---5-----5-----5---5-----5-----5---5-----|
|--5---5-----5-----5---5-----5-----5---5-----|
|--3---3-----3-----3---3-----3-----3---3-----|
|
| S S S S S S S S S S S S S S S S
|-h5-3p0p-h5-3p0p-h5-3p0p-h5-3p0p-h5-3p0p-h5-|
|--------------------------------------------|
|--------------------------------------------|
|--------------------------------------------|
|--------------------------------------------|
|--------------------------------------------|


C5
Q E E +H
|---------------------------------------|
|---------------------------------------|
|-5---------------5----(5)--------------|
|-5---------------5----(5)--------------|
|-3---------------3----(3)--------------|
|---------------------------------------|
|
| S S S S S S S S S S S S S E.
|-3p0p-h5-3p0p-h5-3p0p-h5--3p0p-h5-3p0p-|
|---------------------------------------|
|---------------------------------------|
|---------------------------------------|
|---------------------------------------|
|---------------------------------------|


A5
PM----------------------------------|
E E E E E E E E
|--------------------------------------------|
|--------------------------------------------|
|--------------------------------------------|
|--7---7-----7-----7---7-----7-----7---7-----|
|--7---7-----7-----7---7-----7-----7---7-----|
|--5---5-----5-----5---5-----5-----5---5-----|
|
| S S S S S S S S S S S S S S S S
|-h8-5p0p-h8-5-0p-h8-5p0p-h8-5p0p-h8-5p0p-h8-|
|--------------------------------------------|
|--------------------------------------------|
|--------------------------------------------|
|--------------------------------------------|
|--------------------------------------------|


D5
Q E E +H
|---------------------------------------|
|---------------------------------------|
|-7---------------7----(7)--------------|
|-7---------------7----(7)--------------|
|-5---------------5----(5)--------------|
|---------------------------------------|
|
| S S S S S S S S S S S S S E.
|-5p0p-h8-5p0p-h8-5p0p-h8--5p0p-h8-5p0p-|
|---------------------------------------|
|---------------------------------------|
|---------------------------------------|
|---------------------------------------|
|---------------------------------------|


B5
PM--------------------------------------|
E E E E E E E E
|--------------------------------------------------|
|--------------------------------------------------|
|--------------------------------------------------|
|---9---9------9------9---9------9------9---9------|
|---9---9------9------9---9------9------9---9------|
|---7---7------7------7---7------7------7---7------|
|
| S S S S S S S S S S S S S S S S
|-h10-7p0p-h10-7p0p-h10-7p0p-h10-7p0p-h10-7p0p-h10-|
|--------------------------------------------------|
|--------------------------------------------------|
|--------------------------------------------------|
|--------------------------------------------------|
|--------------------------------------------------|


E5
Q E E +H
|-------------------------------------------|
|-------------------------------------------|
|-9-----------------9-----(9)---------------|
|-9-----------------9-----(9)---------------|
|-7-----------------7-----(7)---------------|
|-------------------------------------------|
|
| S S S S S S S S S S S S S E.
|-7p0p-h10-7p0p-h10-7p0p-h10--7p0p-h10-7p0p-|
|-------------------------------------------|
|-------------------------------------------|
|-------------------------------------------|
|-------------------------------------------|
|-------------------------------------------|


C#5
PM------------------------------------------|
E E E E E E E E
|-------------------------------------------------------|
|-------------------------------------------------------|
|-------------------------------------------------------|
|--11---11------11-----11---11------11-----11---11------|
|--11---11------11-----11---11------11-----11---11------|
|---9----9-------9------9----9-------9------9----9------|
|
| S S S S S S S S S S S S S S S S
|-h12-9p=0p-h12--9p0p-h12-9p=0p-h12--9p0p-h12-9p=0p-h12-|
|-------------------------------------------------------|
|-------------------------------------------------------|
|-------------------------------------------------------|
|-------------------------------------------------------|
|-------------------------------------------------------|


F#5
Q E E +H
|---------------------------------------------|
|---------------------------------------------|
|-11-----------------11----(11)---------------|
|-11-----------------11----(11)---------------|
|--9------------------9-----(9)---------------|
|---------------------------------------------|
|
| S S S S S S S S S S S S S E.
|--9p0p-h12-9p0p-h12--9p0p-h12--9p0p-h12-9p0p-|
|---------------------------------------------|
|---------------------------------------------|
|---------------------------------------------|
|---------------------------------------------|
|---------------------------------------------|


D#5
PM---------------------------------------------|
E E E E E E E E
|----------------------------------------------------------|
|----------------------------------------------------------|
|----------------------------------------------------------|
|--13----13------13-----13----13------13-----13----13------|
|--13----13------13-----13----13------13-----13----13------|
|--11----11------11-----11----11------11-----11----11------|
|
| S S S S S S S S S S S S S S S S
|-h14-11p=0p-h14-11p0p-h14-11p=0p-h14-11p0p-h14-11p=0p-h14-|
|----------------------------------------------------------|
|----------------------------------------------------------|
|----------------------------------------------------------|
|----------------------------------------------------------|
|----------------------------------------------------------|


G#5
Q E E +H
|------------------------------------------------|
|------------------------------------------------|
|-13------------------13----(13)-----------------|
|-13------------------13----(13)-----------------|
|-11------------------11----(11)-----------------|
|------------------------------------------------|
|
| S S S S S S S S S S S S S E.
|-11p0p-h14-11p0p-h14-11p0p-h14--11p0p-h14-11p0p-|
|------------------------------------------------|
|------------------------------------------------|
|------------------------------------------------|
|------------------------------------------------|
|------------------------------------------------|


Guitar Solo
E5 D5 E5 D5 C5 D5
E E E E H +W E E E E H
|-------------------|---------------------|-----------------------|
|-------------------|---------------------|-----------------------|
|--9---7----9-------|-(9)-----------------|--7----5-----7---------|
|--9---7----9-------|-(9)-----------------|--7----5-----7---------|
|--7---5----7-------|-(7)-----------------|--5----3-----5---------|
|-------------------|---------------------|-----------------------|
|
| Gtr II
| H H H Q. E Q E E Q Q
|-------------------|---------------------|-----------------------|
|-17-------17b20----|-17b20----17b20r==17-|-------------------15--|
|-------------------|---------------------|-16---14-12-14b16r=====|
|-------------------|---------------------|-----------------------|
|-------------------|---------------------|-----------------------|
|-------------------|---------------------|-----------------------|


+W
|-------------------------------------------------------|
|-------------------------------------------------------|
|-(7)---------------------------------------------------|
|-(7)---------------------------------------------------|
|-(5)---------------------------------------------------|
|-------------------------------------------------------|
|
| |---3----| |---3----| |---3----| |---3----|
| E E E E E E E E E E E E
|-------------------------------------------------------|
|-------15-------15-------15-------15-------15-------15-|
|-14b16r===14b16r===14b16r===14b16r===14b16r===14b16r===|
|-------------------------------------------------------|
|-------------------------------------------------------|
|-------------------------------------------------------|


E5 D5 E5
E E E E H +W
|---------------------------|------------------------|
|---------------------------|------------------------|
|--9----------7----9--------|-(9)--------------------|
|--9----------7----9--------|-(9)--------------------|
|--7----------5----7--------|-(7)--------------------|
|---------------------------|------------------------|
|
| |--3--|
| E +E E H +E E Q E E E Q.
|---------------------------|------------------------|
|---------------------------|------------------------|
|-14b16r(14)-12-------------|------------------------|
|---------------14-----(14)-|-14--12-----12-14-16----|
|---------------------------|---------14-------------|
|---------------------------|------------------------|


D5 C5 D5
E E E E H +W
|-------------------------------------------------|----------------------------------------------------|
|-------------------------------------------------|----------------------------------------------------|
|--7-----------5-----------7----------------------|-(7)------------------------------------------------|
|--7-----------5-----------7----------------------|-(7)------------------------------------------------|
|--5-----------3-----------5----------------------|-(5)------------------------------------------------|
|-------------------------------------------------|----------------------------------------------------|
|
| S S S S S S S S S S S S S S S S S S S S S S S S S S S S S S S S
|-------------------------------------------------|----------------------------------------------------|
|-12----------------------------------------------|----------------------------------------------------|
|----14-12-14-12-11-12-11----11-------------------|-14--12-11-12-11----11------------------------------|
|-------------------------14----14-12-14-12----12-|-----------------14----14-12-14-12----12-------12---|
|-------------------------------------------14----|-----------------------------------14----14-12------|
|-------------------------------------------------|----------------------------------------------------|


Verse II
E5 D5 E5 D5 E5 F5 E5
E E E E Q E E E E E E Q Q
||-----------------|--------------------||
||o----------------|-------------------o||
||--9---7---9----7-|-----9---10-10--9---||
||--9---7---9----7-|-----9---10-10--9---||
||o----------------|-------------------o||
||-----------------|--------------------||
|
| E E E E H +W
||-----------------|--------------------||
||o----------------|-------------------o||
||-----------------|--------------------||
||--9---7---9------|-(9)----------------||
||o-7---5---7------|-(7)---------------o||
||-----------------|--------------------||


D5 C5 D5 C5 D5 D#5 D5
E E E E Q E E E E E E Q Q
|-||-----------------|------------------||
|-||o----------------|-----------------o||
|-||--7---5---7----5-|-----7---8-8--7---||
|-||--7---5---7----5-|-----7---8-8--7---||
|-||o----------------|-----------------o||
|-||-----------------|------------------||
|
| E E E E H +W
|-||-----------------|------------------||
|-||o----------------|-----------------o||
|-||-----------------|------------------||
|-||--7---5---7------|-(7)--------------||
|-||o-5---3---5------|-(5)-------------o||
|-||-----------------|------------------||


E5 D5 E5 D5 E5 F5 E5
E E E E Q E E E E E E Q Q
||-----------------|--------------------||
||o----------------|-------------------o||
||--9---7---9----7-|-----9---10-10--9---||
||--9---7---9----7-|-----9---10-10--9---||
||o----------------|-------------------o||
||-----------------|--------------------||
|
| E E E E H +W
||-----------------|--------------------||
||o----------------|-------------------o||
||-----------------|--------------------||
||--9---7---9------|-(9)----------------||
||o-7---5---7------|-(7)---------------o||
||-----------------|--------------------||


D5 C5 D5 C5 D5 D#5 D5
E E E E Q E E E E E E Q Q
|-||-----------------|------------------||
|-||o----------------|-----------------o||
|-||--7---5---7----5-|-----7---8-8--7---||
|-||--7---5---7----5-|-----7---8-8--7---||
|-||o----------------|-----------------o||
|-||-----------------|------------------||
|
| E E E E H +W
|-||-----------------|------------------||
|-||o----------------|-----------------o||
|-||-----------------|------------------||
|-||--7---5---7------|-(7)--------------||
|-||o-5---3---5------|-(5)-------------o||
|-||-----------------|------------------||


Prechorus II
F5 Bb5
PM------------|
E E E E E E E E Q E E +H
|-------------------|------------------|
|-------------------|------------------|
|-------------------|--3----3-(3)------|
|---3-3-3-3-3-3-3-3-|--3----3-(3)------|
|---3-3-3-3-3-3-3-3-|--1----1-(1)------|
|---1-1-1-1-1-1-1-1-|------------------|
|
| W H Q Q
|-------------------|------------------|
|-------------------|------------------|
|-/12---------------|-10------12---10--|
|-------------------|------------------|
|-------------------|------------------|
|-------------------|------------------|


G5 C5
PM---------------|
E E E E E E E E Q E E +H
|---------------------|---------------------------------|
|---------------------|---------------------------------|
|---------------------|-5----5-(5)----------------------|
|--5----5-5-5-5-5-5-5-|-5----5-(5)----------------------|
|--5----5-5-5-5-5-5-5-|-3----3-(3)----------------------|
|--3----3-3-3-3-3-3-3-|---------------------------------|
|
| W H S S S S S S S S
|---------------------|---------------------------------|
|---------------------|-8-------8--10-11-13-11-13-14-15-|
|-12b14r==============|=================================|
|---------------------|---------------------------------|
|---------------------|---------------------------------|
|---------------------|---------------------------------|


F5 Bb5
PM------------|
E E E E E E E E Q E E +H
|-------------------|------------------|
|-------------------|------------------|
|-------------------|--3----3-(3)------|
|---3-3-3-3-3-3-3-3-|--3----3-(3)------|
|---3-3-3-3-3-3-3-3-|--1----1-(1)------|
|---1-1-1-1-1-1-1-1-|------------------|
|
| W H Q Q
|-/15---------------|-13------15---13--|
|-------------------|------------------|
|-------------------|------------------|
|-------------------|------------------|
|-------------------|------------------|
|-------------------|------------------|


G5 C5
PM-------------------|
E E E E E E E E Q E E +H
|-------------------------|-----------------------|
|-------------------------|-----------------------|
|-------------------------|--5-------5-(5)--------|
|--5----5-5-5--5----5-5-5-|--5-------5-(5)--------|
|--5----5-5-5--5----5-5-5-|--3-------3-(3)--------|
|--3----3-3-3--3----3-3-3-|-----------------------|
|
| H H H Q. E
|-15b17-------15b17-------|-15b17------15b17r==15-|
|-------------------------|-----------------------|
|-------------------------|-----------------------|
|-------------------------|-----------------------|
|-------------------------|-----------------------|
|-------------------------|-----------------------|


Chorus II
Aadd2
Q E E. E. Q +E E E. E. Q.
|-0----0-----0---|-(0)-----0--------0----|
|-0----0-----0---|-(0)-----0--------0----|
|-6----6-----6---|-(6)-----6--------6----|
|-7----7-----7---|-(7)-----7--------7----|
|-7----7-----7---|-(7)-----7--------7----|
|-5----5-----5---|-(5)-----5--------5----|
|
| W Q. Q Q.
|----------------|-----------------------|
|----------------|-10b12------10---------|
|----------------|------------------9----|
|----------------|-----------------------|
|----------------|-----------------------|
|----------------|-----------------------|


Gadd6
Q E E. E. Q +E E E. E. Q.
|--0-----0-----0---|-(0)-----0--------0----|
|--0-----0-----0---|-(0)-----0--------0----|
|--4-----4-----4---|-(4)-----4--------4----|
|--5-----5-----5---|-(5)-----5--------5----|
|--5-----5-----5---|-(5)-----5--------5----|
|--3-----3-----3---|-(3)-----3--------3----|
|
| +W Q. Q Q.
|------------------|-----------------------|
|------------------|-10b12------10---------|
|-(9)--------------|------------------9----|
|------------------|-----------------------|
|------------------|-----------------------|
|------------------|-----------------------|


F#m7add2
Q E E. E. Q +E E E. E. Q.
|--0-----0-----0---|-(0)-----0--------0----|
|--0-----0-----0---|-(0)-----0--------0----|
|--2-----2-----2---|-(2)-----2--------2----|
|--4-----4-----4---|-(4)-----4--------4----|
|--4-----4-----4---|-(4)-----4--------4----|
|--2-----2-----2---|-(2)-----2--------2----|
|
| +W Q. Q Q.
|------------------|-----------------------|
|------------------|-10b12------10---------|
|-(9)--------------|------------------9----|
|------------------|-----------------------|
|------------------|-----------------------|
|------------------|-----------------------|


Fmaj7b5
Q E E. E. Q +E E E. E. Q.
|--0-----0-------0--|-(0)--------0------------0----|
|--0-----0-------0--|-(0)--------0------------0----|
|--2-----2-------2--|-(2)--------2------------2----|
|--3-----3-------3--|-(3)--------3------------3----|
|--3-----3-------3--|-(3)--------3------------3----|
|--1-----1-------1--|-(1)--------1------------1----|
|
| +Q Q Q Q S S S E S S S E Q.
|-------------------|------------------------------|
|-------------------|------------------------------|
|-(9)--9----9----9--|--9--10-9-7----9-10-9--7-9----|
|-------------------|------------------------------|
|-------------------|------------------------------|
|-------------------|------------------------------|


Aadd2
Q E E. E. Q +E E E. E. Q.
|-0----0-----0---|-(0)-----0--------0----|
|-0----0-----0---|-(0)-----0--------0----|
|-6----6-----6---|-(6)-----6--------6----|
|-7----7-----7---|-(7)-----7--------7----|
|-7----7-----7---|-(7)-----7--------7----|
|-5----5-----5---|-(5)-----5--------5----|
|
| W Q. Q Q.
|----------------|-----------------------|
|----------------|-10b12------10---------|
|----------------|------------------9----|
|----------------|-----------------------|
|----------------|-----------------------|
|----------------|-----------------------|


Gadd6
Q E E. E. Q +E E E. E. Q.
|--0-----0-----0---|-(0)-----0-----------0-----|
|--0-----0-----0---|-(0)-----0-----------0-----|
|--4-----4-----4---|-(4)-----4-----------4-----|
|--5-----5-----5---|-(5)-----5-----------5-----|
|--5-----5-----5---|-(5)-----5-----------5-----|
|--3-----3-----3---|-(3)-----3-----------3-----|
|
| +W Q. Q. Q
|------------------|---------------------------|
|------------------|-10b12------10b13r=========|
|-(9)--------------|------------------------9--|
|------------------|---------------------------|
|------------------|---------------------------|
|------------------|---------------------------|


F#m7add2
Q E E. E. Q +E E E. E. Q.
|--0-----0-----0---|-(0)-----0--------0----|
|--0-----0-----0---|-(0)-----0--------0----|
|--2-----2-----2---|-(2)-----2--------2----|
|--4-----4-----4---|-(4)-----4--------4----|
|--4-----4-----4---|-(4)-----4--------4----|
|--2-----2-----2---|-(2)-----2--------2----|
|
| +W Q. Q Q.
|------------------|-----------------------|
|------------------|-10b12------10---------|
|-(9)--------------|------------------9----|
|------------------|-----------------------|
|------------------|-----------------------|
|------------------|-----------------------|


Fmaj7b5
Q E E. E. Q +E E E. E. Q.
|--0-----0----------0----|-(0)-----0--------0----|
|--0-----0----------0----|-(0)-----0--------0----|
|--2-----2----------2----|-(2)-----2--------2----|
|--3-----3----------3----|-(3)-----3--------3----|
|--3-----3----------3----|-(3)-----3--------3----|
|--1-----1----------1----|-(1)-----1--------1----|
|
| |----3-----|
| +H Q Q Q E E Q H
|------------------------|-----------------------|
|------------------------|-13--12-10-------------|
|-(9)-------9----10---12-|---------------12------|
|------------------------|-----------------------|
|------------------------|-----------------------|
|------------------------|-----------------------|


E-string WankFest II
F5
PM----------------------------------|
E E E E E E E E
|--------------------------------------------|
|--------------------------------------------|
|--------------------------------------------|
|--3---3-----3-----3---3-----3-----3---3-----|
|--3---3-----3-----3---3-----3-----3---3-----|
|--1---1-----1-----1---1-----1-----1---1-----|
|
| S S S S S S S S S S S S S S S S
|-h3-1p0p-h3-1p0p-h3-1p0p-h3-1p0p-h3-1p0p-h3-|
|--------------------------------------------|
|--------------------------------------------|
|--------------------------------------------|
|--------------------------------------------|
|--------------------------------------------|


Bb5
Q E E +H
|---------------------------------------|
|---------------------------------------|
|-3---------------3----(3)--------------|
|-3---------------3----(3)--------------|
|-1---------------1----(1)--------------|
|---------------------------------------|
|
| S S S S S S S S S S S S S E.
|-1p0p-h3-1p0p-h3-1p0p-h3--1p0p-h3-1p0p-|
|---------------------------------------|
|---------------------------------------|
|---------------------------------------|
|---------------------------------------|
|---------------------------------------|


G5
PM----------------------------------|
E E E E E E E E
|--------------------------------------------|
|--------------------------------------------|
|--------------------------------------------|
|--5---5-----5-----5---5-----5-----5---5-----|
|--5---5-----5-----5---5-----5-----5---5-----|
|--3---3-----3-----3---3-----3-----3---3-----|
|
| S S S S S S S S S S S S S S S S
|-h5-3p0p-h5-3p0p-h5-3p0p-h5-3p0p-h5-3p0p-h5-|
|--------------------------------------------|
|--------------------------------------------|
|--------------------------------------------|
|--------------------------------------------|
|--------------------------------------------|


C5
Q E E +H
|---------------------------------------|
|---------------------------------------|
|-5---------------5----(5)--------------|
|-5---------------5----(5)--------------|
|-3---------------3----(3)--------------|
|---------------------------------------|
|
| S S S S S S S S S S S S S E.
|-3p0p-h5-3p0p-h5-3p0p-h5--3p0p-h5-3p0p-|
|---------------------------------------|
|---------------------------------------|
|---------------------------------------|
|---------------------------------------|
|---------------------------------------|


A5
PM----------------------------------|
E E E E E E E E
|--------------------------------------------|
|--------------------------------------------|
|--------------------------------------------|
|--7---7-----7-----7---7-----7-----7---7-----|
|--7---7-----7-----7---7-----7-----7---7-----|
|--5---5-----5-----5---5-----5-----5---5-----|
|
| S S S S S S S S S S S S S S S S
|-h8-5p0p-h8-5-0p-h8-5p0p-h8-5p0p-h8-5p0p-h8-|
|--------------------------------------------|
|--------------------------------------------|
|--------------------------------------------|
|--------------------------------------------|
|--------------------------------------------|


D5
Q E E +H
|---------------------------------------|
|---------------------------------------|
|-7---------------7----(7)--------------|
|-7---------------7----(7)--------------|
|-5---------------5----(5)--------------|
|---------------------------------------|
|
| S S S S S S S S S S S S S E.
|-5p0p-h8-5p0p-h8-5p0p-h8--5p0p-h8-5p0p-|
|---------------------------------------|
|---------------------------------------|
|---------------------------------------|
|---------------------------------------|
|---------------------------------------|


B5
PM--------------------------------------|
E E E E E E E E
|--------------------------------------------------|
|--------------------------------------------------|
|--------------------------------------------------|
|---9---9------9------9---9------9------9---9------|
|---9---9------9------9---9------9------9---9------|
|---7---7------7------7---7------7------7---7------|
|
| S S S S S S S S S S S S S S S S
|-h10-7p0p-h10-7p0p-h10-7p0p-h10-7p0p-h10-7p0p-h10-|
|--------------------------------------------------|
|--------------------------------------------------|
|--------------------------------------------------|
|--------------------------------------------------|
|--------------------------------------------------|


E5
Q E E +H
|-------------------------------------------|
|-------------------------------------------|
|-9-----------------9-----(9)---------------|
|-9-----------------9-----(9)---------------|
|-7-----------------7-----(7)---------------|
|-------------------------------------------|
|
| S S S S S S S S S S S S S E.
|-7p0p-h10-7p0p-h10-7p0p-h10--7p0p-h10-7p0p-|
|-------------------------------------------|
|-------------------------------------------|
|-------------------------------------------|
|-------------------------------------------|
|-------------------------------------------|


C#5
PM------------------------------------------|
E E E E E E E E
|-------------------------------------------------------|
|-------------------------------------------------------|
|-------------------------------------------------------|
|--11---11------11-----11---11------11-----11---11------|
|--11---11------11-----11---11------11-----11---11------|
|---9----9-------9------9----9-------9------9----9------|
|
| S S S S S S S S S S S S S S S S
|-h12-9p=0p-h12--9p0p-h12-9p=0p-h12--9p0p-h12-9p=0p-h12-|
|-------------------------------------------------------|
|-------------------------------------------------------|
|-------------------------------------------------------|
|-------------------------------------------------------|
|-------------------------------------------------------|


F#5
Q E E +H
|---------------------------------------------|
|---------------------------------------------|
|-11-----------------11----(11)---------------|
|-11-----------------11----(11)---------------|
|--9------------------9-----(9)---------------|
|---------------------------------------------|
|
| S S S S S S S S S S S S S E.
|--9p0p-h12-9p0p-h12--9p0p-h12--9p0p-h12-9p0p-|
|---------------------------------------------|
|---------------------------------------------|
|---------------------------------------------|
|---------------------------------------------|
|---------------------------------------------|


D#5
PM---------------------------------------------|
E E E E E E E E
|----------------------------------------------------------|
|----------------------------------------------------------|
|----------------------------------------------------------|
|--13----13------13-----13----13------13-----13----13------|
|--13----13------13-----13----13------13-----13----13------|
|--11----11------11-----11----11------11-----11----11------|
|
| S S S S S S S S S S S S S S S S
|-h14-11p=0p-h14-11p0p-h14-11p=0p-h14-11p0p-h14-11p=0p-h14-|
|----------------------------------------------------------|
|----------------------------------------------------------|
|----------------------------------------------------------|
|----------------------------------------------------------|
|----------------------------------------------------------|


G#5
Q E E +H
|------------------------------------------------|
|------------------------------------------------|
|-13------------------13----(13)-----------------|
|-13------------------13----(13)-----------------|
|-11------------------11----(11)-----------------|
|------------------------------------------------|
|
| S S S S S S S S S S S S S E.
|-11p0p-h14-11p0p-h14-11p0p-h14--11p0p-h14-11p0p-|
|------------------------------------------------|
|------------------------------------------------|
|------------------------------------------------|
|------------------------------------------------|
|------------------------------------------------|


Outro
E5 D5 E5
E E E E H +W
|---------------|---------*|
|---------------|---------*|
|--9---7---9----|--(9)----*|
|--9---7---9----|--(9)----*|
|--7---5---7----|--(7)----*|
|---------------|---------*|
|
| W +W
|-12------------|-(12)----*|
|---------------|---------*|
|---------------|---------*|
|---------------|---------*|
|---------------|---------*|
|---------------|---------*|



Duration Legend
---------------
W - whole; H - half; Q - quarter; E - 8th; S - 16th; T - 32nd; X - 64th; a - acciaccatura
+ - note tied to previous; . - note dotted; .. - note double dotted
Uncapitalized letters represent notes that are staccato (1/2 duration)
Irregular groupings are notated above the duration line
Duration letters will always appear directly above the note/fret number it represents the
duration for. Duration letters with no fret number below them represent rests. Multi-
bar rests are notated in the form Wxn, where n is the number of bars to rest for. Low
melody durations appear below the staff

Tablature Legend
----------------
h - hammer-on
p - pull-off
b - bend
pb - pre-bend
r - bend release (if no number after the r, then release immediately)
/\ - slide into or out of (from/to "nowhere")
s - legato slide
S - shift slide
<n> - natural harmonic
[n] - artificial harmonic
n(n) - tapped harmonic
~ - vibrato
tr - trill
T - tap
TP - trem. picking
PM - palm muting
\n/ - tremolo bar dip; n = amount to dip
\n - tremolo bar down
n/ - tremolo bar up
/n\ - tremolo bar inverted dip
= - hold bend; also acts as connecting device for hammers/pulls
<> - volume swell (louder/softer)
x - on rhythm slash represents muted slash
o - on rhythm slash represents single note slash

Misc Legend
-----------
| - bar
|| - double bar
||o - repeat start
o|| - repeat end
*| - double bar (ending)
: - bar (freetime)
$ - Segno
& - Coda
Tempo markers - <E/E./Q/Q./H/H.> = BPM(8/16=s8/s16), where s8 = swing 8ths, s16 = swing 16ths

** Generated using Power Tab Editor by Brad Larsen: The Official Power Tab Web Site

Tabs

musicsupportedhere

EKR Square Logo Orange