Monday, March 27, 2017
Text Size

MOTORWAY CITY (B)


#----------------------------------PLEASE NOTE---------------------------------#
#This file is the author's own work and represents their interpretation of the #
#song. You may only use this file for private study, scholarship, or research. #
#------------------------------------------------------------------------------#
MOTORWAY CITY (Bassline)
As recorded by Hawkwind
(From the 1980 Album LEVITATION)

Transcribed by UncleDes

Words and Music by David Brock


Gtr I (E A D G) - 'Untitled'

Intro
Q=134
4/4
Gtr I
Wx7 H E E E E
|------------|--------------|
|------------|--------------|
|------------|--------2-3---|
|------------|------5-----5-|


Lead Guitar Intro
E E E E E E E E E E E E E E E E E E E E E E E E E E E E E E E E
|---7---7---7---7-|---7---7---7---7-|---5---5---5---5-|---5---5---5---5-|
|-----------------|-----------------|-----------------|-----------------|
|-5---5---5---5---|-5---5---5---5---|-3---3---3---3---|-3---3---3---3---|
|-----------------|-----------------|-----------------|-----------------|


E E E E E E E E E E E E E E E E E E E E E E E E E E E E E E E E
|---7---7---7---7-|---7---7---7---7-|---5---5---5---5-|---5---5---5---5-|
|-----------------|-----------------|-----------------|-----------------|
|-5---5---5---5---|-5---5---5---5---|-3---3---3---3---|-3---3---3---3---|
|-----------------|-----------------|-----------------|-----------------|


Verse
E E E E E E E E E E E E E E E E E E E E E E E E E E E E E E E E
||------------------|-----------------|-----------------|------------------|
||o-----------------|-----------------|-----------------|------------------|
||o-5---5---5---5---|-5---5---5---5---|-3---3---3---3---|-3---3---3---3----|
||------------------|-----------------|-----------------|------------------|


E E E E E E E E E E E E E E E E E E E E E E E E E E E E E E E E
|-----------------|-----------------|-----------------|------------------||
|-----------------|-----------------|-----------------|-----------------o||
|-5---5---5---5---|-5---5---5---5---|-3---3---3---3---|-3-0-3-0-0-2-3-0-o||
|-----------------|-----------------|-----------------|------------------||


Prechorus 1
E E E E E E E E E E E E E E E E E E E E E E E E E E E E E E E E
||------------------|-----------------|-----------------|-------------------||
||o-----------------|-----------------|-----------------|------------------o||
||o-----------------|-----------------|-----------------|------------------o||
||--5---5---5---5-0-|-5---5---5---5---|-1---1---1---1-0-|-1---1---1-0-1-0---||


Q. Q. Q +E E E E E E E E Q. Q. Q +E E E E E E E E
||---------------|-------------------|--------------|---------------------||
||o--------------|-------------------|--------------|--------------------o||
||o--------------|-------------------|--------------|--------------------o||
||--5----5----5--|-(5)---5---5---5---|-1----1----1--|-(1)---1-0-1-0-1-3---||


Chorus 1
Q. Q. Q +E E Q E E S S E Q. Q. Q +E E E E E E S S E
||---------------|--------------------|--------------|----------------------|
||o--------------|----------7-7-7-5---|--------------|---------3-5-5-5-3----|
||o--------------|-----5h7----------7-|--------------|-----3h5-----------5--|
||--5----5----5--|-(5)----------------|-3----3----3--|-(3)------------------|


E E E E E E E E E E E E E E E E Q. Q. Q +E Q. Q Q 4x
|-----------------|-----------------|--------------|-----------------||
|-----------------|-----------------|--------------|----------------o||
|-----------------|-----------------|--------------|----------------o||
|-1-0-1-0-1-0-1-0-|-1-0-1-0-1-0-1-2-|-3----3----3--|-(3)-3----3--3---||


Q E Q E Q E Q E E E E E Q E Q E Q E Q E E E E E 4x
||---------------|----------------|--------------|------------------||
||o--------------|----------------|--------------|-----------------o||
||o--------------|----------3-0---|--------------|-----------------o||
||--5--5-5--5-5--|-5-5--5-5-----3-|-1--1-1--1-1--|-1-1--1-1-3-3-3---||


Guitar Solo
E E E E E E E E E E E E E E E E E E E E E E E E E E E E E E Q
|-----------------|-----------------|-----------------|----------------|
|-----------------|-----------------|-----------------|----------------|
|-----------------|-----------2-0---|-----------------|----------------|
|-5-4-5-4-5-4-5-4-|-5-4-5-4-5-----3-|-1-0-1-0-1-0-1-0-|-1-0-1-0-1-3-3--|


E E E E E E E E E E E E E E E E E E E E E E E E E E E E E E E E
|-----------------|-----------------|-----------------|-----------------|
|-----------------|-----------------|-----------------|-----------------|
|-----------------|-----------2-0---|-----------------|-----------------|
|-5-4-5-4-5-4-5-4-|-5-4-5-4-5-----3-|-1-0-1-0-1-0-1-0-|-1-0-1-0-1-3-3-3-|


E E E E E E E E E E E E E E E E E E E E E E E E E E E E E E Q
|-----------------|-----------------|-----------------|----------------|
|-----------------|-----------------|-----------------|----------------|
|-----------------|-----------------|-----------------|----------------|
|-5-4-5-4-5-4-5-4-|-5-4-5-4-5-4-3-2-|-1-0-1-0-1-0-1-0-|-1-0-1-0-1S3-3--|


E E E E E E E E E E E E E E E E E E E E E E E E E E E E E E E E
|-----------------|-----------------|-----------------|-----------------|
|-----------------|-----------------|-----------------|-----------------|
|-----------------|-------2-3-2-0---|-----------------|-----------------|
|-5-4-5-4-5-4-5-4-|-5-4-5---------3-|-1-0-1-0-1-0-1-0-|-1-0-1-0-1-3-3-3-|


E E E E E E E E E E E E E E E E E E E E E E E E E E E E E E Q
|-----------------|-----------------|-----------------|----------------|
|-----------------|-----------------|-----------------|----------------|
|-----------------|-----------2-0---|-----------------|----------------|
|-5-4-5-4-5-4-5-4-|-5-4-5-4-5-----3-|-1-0-1-0-1-0-1-0-|-1-0-1-0-1-3-3--|


E E E E E E E E E E E E E E E E E E E E E E E E E E E E E E E E
|-----------------|-----------------|-----------------|-----------------|
|-----------------|-----------------|-----------------|-----------------|
|-----------------|-----------2-0---|-----------------|-----------------|
|-5-4-5-4-5-4-5-4-|-5-4-5-4-5-----3-|-1-0-1-0-1-0-1-0-|-1-0-1-0-1-3-3-3-|


E-bow
E E E E E E E E E E E E E E E E E E E E E E E E E E E E E E Q
|-----------------|-----------------|-----------------|----------------|
|-----------------|-----------------|-----------------|----------------|
|-----------------|-----------------|-----------------|----------------|
|-5-4-5-4-5-4-5-4-|-5-4-5-4-5-4-3-2-|-1-0-1-0-1-0-1-0-|-1-0-1-0-1S3-3--|


E E E E E E E E E E E E E E E E E E E E E E E E E E E E E E E E
|-----------------|-----------------|-----------------|-----------------|
|-----------------|-----------------|-----------------|-----------------|
|-----------------|-------2-3-2-0---|-----------------|-----------------|
|-5-4-5-4-5-4-5-4-|-5-4-5---------3-|-1-0-1-0-1-0-1-0-|-1-0-1-0-1-3-3-3-|


E E E E E E E E E E E E E E E E E E E E E E E E E E E E E E Q
|-----------------|-----------------|-----------------|----------------|
|-----------------|-----------------|-----------------|----------------|
|-----------------|-----------2-0---|-----------------|----------------|
|-5-4-5-4-5-4-5-4-|-5-4-5-4-5-----3-|-1-0-1-0-1-0-1-0-|-1-0-1-0-1-3-3--|


E E E E E E E E E E E E E E E E E E E E E E E E E E E E E E Q
|-----------------|-----------------|-----------------|----------------|
|-----------------|-----------------|-----------------|----------------|
|-----------------|-----------2-0---|-----------------|----------------|
|-5-4-5-4-5-4-5-4-|-5-4-5-4-5-----3-|-1-0-1-0-1-0-1-0-|-1-0-1-0-1-3-3--|


E E E E E E E E E E E E E E E E E E E E E E E E E E E E E E E E
|-----------------|-----------------|-----------------|-----------------|
|-----------------|-----------------|-----------------|-----------------|
|-----------------|-----------2-0---|-----------------|-----------------|
|-5-4-5-4-5-4-5-4-|-5-4-5-4-5-----3-|-1-0-1-0-1-0-1-0-|-1-0-1-0-1-3-3-3-|


E E E E E E E E E E E E E E E E E E E E E E E E E E E E E E E E
|-----------------|-----------------|-----------------|-----------------|
|-----------------|-----------------|-----------------|-----------------|
|-----------------|-------2-3-2-0---|-----------------|-----------------|
|-5-4-5-4-5-4-5-4-|-5-4-5---------3-|-1-0-1-0-1-0-1-0-|-1-0-1-0-1-3-3-3-|


E E E E E E E E E E E E E E E E E E E E E E E E E E E E E E Q
|-----------------|-----------------|-----------------|----------------|
|-----------------|-----------------|-----------------|----------------|
|-----------------|-----------2-0---|-----------------|----------------|
|-5-4-5-4-5-4-5-4-|-5-4-5-4-5-----3-|-1-0-1-0-1-0-1-0-|-1-0-1-0-1-3-3--|


E E E E E E E E E E E E E E E E E E E E E E E E E E E E E E E E
|-----------------|-----------------|-----------------|-----------------|
|-----------------|-----------------|-----------------|-----------------|
|-----------------|-------2-3-2-0---|-----------------|-----------------|
|-5-4-5-4-5-4-5-4-|-5-4-5---------3-|-1-0-1-0-1-0-1-0-|-1-0-1-0-1-3-3-3-|


E E E E E E E E E E E E E E E E E E E E E E E E E E E E E E Q
|-----------------|-----------------|-----------------|----------------|
|-----------------|-----------------|-----------------|----------------|
|-----------------|-----------2-0---|-----------------|----------------|
|-5-4-5-4-5-4-5-4-|-5-4-5-4-5-----3-|-1-0-1-0-1-0-1-0-|-1-0-1-0-1-3-3--|


E E E E E E E E E E E E E E E E
|-----------------|-----------------|
|-----------------|-----------------|
|-----------------|-----------------|
|-3---3---3---3---|-3---3---3-0-3-4-|


Prechorus 2
E E E E E E E E E E E E E E E E E E E E E E E E E E E E E E E E 4x
||------------------|-----------------|-----------------|-------------------||
||o-----------------|-----------------|-----------------|------------------o||
||o-----------------|-----------------|-----------------|------------------o||
||--5---5---5---5-0-|-5---5---5---5---|-1---1---1---1-0-|-1---1---1-0-1-0---||


E E E E E E E E E E E E E E E E E E E E E E E E E E E E E E E E 3x
||----7---7---7---7-|---7---7---7---7-|---5---5---5---5-|---5---5---5---5---||
||o-----------------|-----------------|-----------------|------------------o||
||o-5---5---5---5---|-5---5---5---5---|-3---3---3---3---|-3---3---3---3----o||
||------------------|-----------------|-----------------|-------------------||

 

Duration Legend
---------------
W - whole; H - half; Q - quarter; E - 8th; S - 16th; T - 32nd; X - 64th; a - acciaccatura
+ - note tied to previous; . - note dotted; .. - note double dotted
Uncapitalized letters represent notes that are staccato (1/2 duration)
Irregular groupings are notated above the duration line
Duration letters will always appear directly above the note/fret number it represents the
duration for. Duration letters with no fret number below them represent rests. Multi-
bar rests are notated in the form Wxn, where n is the number of bars to rest for. Low
melody durations appear below the staff

Tablature Legend
----------------
h - hammer-on
p - pull-off
b - bend
pb - pre-bend
r - bend release (if no number after the r, then release immediately)
/\ - slide into or out of (from/to "nowhere")
s - legato slide
S - shift slide
<n> - natural harmonic
[n] - artificial harmonic
n(n) - tapped harmonic
~ - vibrato
tr - trill
T - tap
TP - trem. picking
PM - palm muting
\n/ - tremolo bar dip; n = amount to dip
\n - tremolo bar down
n/ - tremolo bar up
/n\ - tremolo bar inverted dip
= - hold bend; also acts as connecting device for hammers/pulls
<> - volume swell (louder/softer)
x - on rhythm slash represents muted slash
o - on rhythm slash represents single note slash

Misc Legend
-----------
| - bar
|| - double bar
||o - repeat start
o|| - repeat end
*| - double bar (ending)
: - bar (freetime)
$ - Segno
& - Coda
Tempo markers - <E/E./Q/Q./H/H.> = BPM(8/16=s8/s16), where s8 = swing 8ths, s16 = swing 16ths

** Generated using Power Tab Editor by Brad Larsen: The Official Power Tab Web Site

Tabs

musicsupportedhere

EKR Square Logo Orange