Monday, March 27, 2017
Text Size

SWORD OF THE EAST (B)

#----------------------------------PLEASE NOTE---------------------------------#

#This file is the author's own work and represents their interpretation of the #
#song. You may only use this file for private study, scholarship, or research. #
#------------------------------------------------------------------------------#
SWORD OF THE EAST (Bassline)
As recorded by Hawkwind
(From the 1988 Album XENON CODEX)

Transcribed by UncleDes

Music by Davey
Arranged by UncleDes


Gtr I (E A D G) - 'Untitled'

Q=160
4/4
Gtr I
Wx12 E E E E E E E E E E E E E E E E
|-------------||-------------------|-----------------|
|-------------||o--2-2-2-2-2-2-2-2-|-2-2-2-2-2-2-2-2-|
|-------------||o------------------|-----------------|
|-------------||-------------------|-----------------|


E E E E E E E E E E E E E E E E 4x
|-----------------|---------------------||
|-----------------|-3-3-3-3-5-5-3-3----o||
|-3-3-3-3-3-3-3-3-|--------------------o||
|-----------------|---------------------||


E E E E E E E E E E E E E E E E E E E E E E E E E E E E E E E E
|-----------------|-----------------|-----------------|------------------|
|-----------------|-----------------|-----------------|------------------|
|-----------------|-----------------|-----------------|------------------|
|-3-3-3-3-3-3-3-3-|-3-3-3-3-3-3-3-3-|-3-3-3-3-3-3-3-3-|-3-3-3-3-5-5-3-3--|


~
E E E E E E E E E E E E E E E E E E E E E E E E E E E E E E E E
|-----------------|-----------------|-----------------|-----------------|
|-----------------|-----------------|-1-1-1-1-1-1-1-1-|-1-1-1-1-1-1-1-1-|
|-----------------|-----------------|-----------------|-----------------|
|-1-1-1-1-1-1-1-1-|-1-1-1-1-1-1-1-1-|-----------------|-----------------|


E E E E E E E E E E E E E E E E E E E E E E E E E E E E E E E E 4x
||------------------|-----------------|-----------------|------------------||
||o-2-2-2-2-2-2-2-2-|-2-2-2-2-2-2-2-2-|-----------------|-3-3-3-3-5-5-3-3-o||
||o-----------------|-----------------|-3-3-3-3-3-3-3-3-|-----------------o||
||------------------|-----------------|-----------------|------------------||


E E E E E E E E E E E E E E E E E E E E E E E E E E E E E E E E
||------------------|-----------------|-----------------|-----------------|
||o-----------------|-----------------|-----------------|-----------------|
||o-----------------|-----------------|-----------------|-----------------|
||--3-3-3-3-3-3-3-3-|-3-3-3-3-3-3-3-3-|-3-3-3-3-3-3-3-3-|-3-3-3-3-5-5-3-3-|


E E E E E E E E E E E E E E E E E E E E E E E E E E E E E E E E
|-----------------|-----------------|-----------------|------------------||
|-----------------|-----------------|-1-1-1-1-1-1-1-1-|-1-1-1-1-1-1-1-1-o||
|-----------------|-----------------|-----------------|-----------------o||
|-1-1-1-1-1-1-1-1-|-1-1-1-1-1-1-1-1-|-----------------|------------------||


Wx45 E E E E E E E E
|----------------|--------------------|
|----------------|-8-8-6-6------------|
|----------------|---------8-8-6------|
|----------------|---------------9----|


E E E E E E E E E E E E E E E E E E E E E E E E E E E E E E E E 6x
||------------------|-----------------|-----------------|------------------||
||o-2-2-2-2-2-2-2-2-|-2-2-2-2-2-2-2-2-|-----------------|-3-3-3-3-5-5-3-3-o||
||o-----------------|-----------------|-3-3-3-3-3-3-3-3-|-----------------o||
||------------------|-----------------|-----------------|------------------||


E E E E E E E E E E E E E E E E E E E E E E E E E E E E E E E E
||------------------|-----------------|-----------------|-----------------|
||o-----------------|-----------------|-----------------|-----------------|
||o-----------------|-----------------|-----------------|-----------------|
||--3-3-3-3-3-3-3-3-|-3-3-3-3-3-3-3-3-|-3-3-3-3-3-3-3-3-|-3-3-3-3-5-5-3-3-|


E E E E E E E E E E E E E E E E E E E E E E E E E E E E E E E E
|-----------------|-----------------|-----------------|------------------||
|-----------------|-----------------|-1-1-1-1-1-1-1-1-|-1-1-1-1-1-1-1-1-o||
|-----------------|-----------------|-----------------|-----------------o||
|-1-1-1-1-1-1-1-1-|-1-1-1-1-1-1-1-1-|-----------------|------------------||

 

Duration Legend
---------------
W - whole; H - half; Q - quarter; E - 8th; S - 16th; T - 32nd; X - 64th; a - acciaccatura
+ - note tied to previous; . - note dotted; .. - note double dotted
Uncapitalized letters represent notes that are staccato (1/2 duration)
Irregular groupings are notated above the duration line
Duration letters will always appear directly above the note/fret number it represents the
duration for. Duration letters with no fret number below them represent rests. Multi-
bar rests are notated in the form Wxn, where n is the number of bars to rest for. Low
melody durations appear below the staff

Tablature Legend
----------------
h - hammer-on
p - pull-off
b - bend
pb - pre-bend
r - bend release (if no number after the r, then release immediately)
/\ - slide into or out of (from/to "nowhere")
s - legato slide
S - shift slide
<n> - natural harmonic
[n] - artificial harmonic
n(n) - tapped harmonic
~ - vibrato
tr - trill
T - tap
TP - trem. picking
PM - palm muting
\n/ - tremolo bar dip; n = amount to dip
\n - tremolo bar down
n/ - tremolo bar up
/n\ - tremolo bar inverted dip
= - hold bend; also acts as connecting device for hammers/pulls
<> - volume swell (louder/softer)
x - on rhythm slash represents muted slash
o - on rhythm slash represents single note slash

Misc Legend
-----------
| - bar
|| - double bar
||o - repeat start
o|| - repeat end
*| - double bar (ending)
: - bar (freetime)
$ - Segno
& - Coda
Tempo markers - <E/E./Q/Q./H/H.> = BPM(8/16=s8/s16), where s8 = swing 8ths, s16 = swing 16ths

** Generated using Power Tab Editor by Brad Larsen: The Official Power Tab Web Site 

Tabs

musicsupportedhere

EKR Square Logo Orange